Oops, an error
Loading. Please wait.

Undone Tab

ver1
ver1

Solo

Whole song

Interactive

More versions @911Tabs.com
16,262 views 6 this week
5 commentsread comments
1 2 3 4 5
excellent!
x 4
Autoscroll
+/-
esc
set tempo
stop
Contributor
Hey! There's an official Ultimate Guitar app which is ideal
for learning songs when you're away from computer. Get the app
WARNING: You are trying to view
                                    content from Ultimate-Guitar.com
                                    in an unauthorized application,
                                    which is prohibited.

                                    Please use an official Ultimate
                                    Guitar Tabs application for iPhone,
                                    iPad or Android to access legitimate
                                    chords, guitar, bass, and drum tabs
                                    from Ultimate-Guitar.com database.

                                    Type "ultimate guitar tabs" in Apple
                                    App Store's or Android Market's
                                    search to find the application.
Artist: All That Remains
Song: Undone
Album: Overcome

This tab is not complete, but it's a start
I've tabbed out the intro, verse, chorus, and solo rhythm.
I've got a start on the solo and i'll update later when i finish it
 

 

Gtr I (Db Gb B E Ab Db) - 'Untitled'
Gtr II (Db Gb B E Ab Db) - 'Untitled'


Intro:
  Q=192
  Gtrs I, II
  E   +E  E E E E E E E
|---|----------------------|
|---|----------------------|
|---|----------------------|
|-5-|-(5)-7-5-4------------|
|-3-|-(3)-5-3-2-5-7-5-2----|
|---|-----------3-5-3-0----|


        PM  PM  PM------|         PM|     PM|   PM  PM------|       PM
    +E  E E E E E E E   E E E E E E E E   E E E E E E E E   E E E E E E E E
||--------------------|-----------------|-----------------|------------------|
||o-------------------|-----------------|-----------------|------------------|
||--------------------|-----7-9---------|-----------------|-----4-5-----7-9--|
||--------5---4-------|---5-----7-----5-|-----5---4-------|---5-------7------|
||o-(2)-----------7-5-|-3---------5-3---|-------------7-5-|-3-------5--------|
||--(0)-0---0---0-----|-----------------|-0-0---0---0-----|------------------|


  PM|   PM  PM------|         PM|     PM|   PM  PM|
  E E E E E E E E   E E E E E E E E   E E E E E E E E   +E  E E E E E E E
|-----------------|-----------------|-----------------|--------------------||
|-----------------|-----------------|-----------------|-------------------o||
|-----------------|-----7-9---------|-----------------|--------------------||
|-----5---4-------|---5-----7-----5-|-----5---4-----5-|-(5)-7-5-4----------||
|-------------7-5-|-3---------5-3---|---------------3-|-(3)-5-3-2-5-7-5-2-o||
|-0-0---0---0-----|-----------------|-0-0---0---0-0---|-----------3-5-3-0--||


Verse:
  $
  Gtr I
       PM--|               PM------|          PM--|               PM------|
  +Q   S S E H         Q   E E E E E E   +Q   S S E H         Q   E E E E E E
|--------------------|-----------------|--------------------|-----------------|
|--------------------|-----------------|--------------------|-----------------|
|--------------------|-----------------|--------------------|-----------------|
|--------------------|-----------------|--------------------|---------------9-|
|-(2)----------------|---------------5-|-(5)----------------|---------------7-|
|-(0)--0-0-0---------|-----0-0-0-0-0-3-|-(3)--0-0-0---------|-----0-0-0-0-0---|
|
| Gtr II
|      PM----|   PM    PM  PM------|          PM----|   PM    PM  PM------|
| +Q   S S E E E E E   E E E E E E E E   +Q   S S E E E E E   E E E E E E E E
|--------------------|-----------------|--------------------|-----------------|
|--------------------|-----------------|--------------------|-----------------|
|--------------------|-----------------|--------------------|-----------------|
|--------------5---4-|-----------------|--------------5---4-|---------------9-|
|-(2)----------------|---7-----------5-|-(5)----------------|---7-----------7-|
|-(0)--0-0-0-0---0---|-0---0-0-0-0-0-3-|-(3)--0-0-0-0---0---|-0---0-0-0-0-0---|


       PM--|               PM------|
  +Q   S S E H         Q   E E E E E E   +H..       E   +E  E E E E E E E
|--------------------|-----------------|--------------|--------------------|
|--------------------|-----------------|--------------|--------------------|
|--------------------|-----------------|--------------|--------------------|
|-(9)----------------|---------------5-|-(5)--------4-|-(4)-5-4-2----------|
|-(7)----------------|---------------3-|-(3)--------2-|-(2)-3-2-0-5-7-5-2--|
|------0-0-0---------|-----0-0-0-0-0---|--------------|-----------3-5-3-0--|
|
|      PM----|   PM    PM  PM------|
| +Q   S S E E E E E   E E E E E E E E   +H..       E   +E  E E E E E E E
|--------------------|-----------------|--------------|--------------------|
|--------------------|-----------------|--------------|--------------------|
|--------------------|-----------------|--------------|--------------------|
|-(9)----------5---4-|---------------5-|-(5)--------4-|-(4)-5-4-2----------|
|-(7)----------------|---7-----------3-|-(3)--------2-|-(2)-3-2-0-5-7-5-2--|
|------0-0-0-0---0---|-0---0-0-0-0-0---|--------------|-----------3-5-3-0--|


       PM--|                PM------|
  +Q   S S E H         Q    E E E E E E
|--------------------|------------------|
|--------------------|------------------|
|--------------------|------------------|
|--------------------|----------------5-|
|-(2)----------------|----------------3-|
|-(0)--0-0-0---------|------0-0-3-5-3---|
|
|      PM----|   PM    PM   PM------|
| +Q   S S E E E E E   E  E E E E E E E
|--------------------|------------------|
|--------------------|------------------|
|--------------------|------------------|
|--------------9---7-|----------------5-|
|-(2)----------------|---10-----------3-|
|-(0)--0-0-0-0---0---|-0----0-0-3-5-3---|


       PM--|                PM------|
  +Q   S S E H         Q    E E E E E E
|--------------------|------------------|
|--------------------|------------------|
|--------------------|------------------|
|-(5)----------------|------------------|
|-(3)----------------|----------------5-|
|------0-0-0---------|------0-0-2-3-2-3-|
|
|      PM----|   PM    PM   PM------|
| +Q   S S E E E E E   E  E E E E E E E
|--------------------|------------------|
|--------------------|------------------|
|--------------------|------------------|
|-(5)----------9---7-|------------------|
|-(3)----------------|---10-----------5-|
|------0-0-0-0---0---|-0----0-0-2-3-2-3-|


       PM--|                PM------|
  +Q   S S E H         Q    E E E E E E   +H..       E   +E  E E E E E E E
|--------------------|------------------|--------------|--------------------|
|--------------------|------------------|--------------|--------------------|
|--------------------|------------------|--------------|--------------------|
|--------------------|----------------4-|-(4)--------4-|-(4)-5-4-2----------|
|-(5)----------------|----------------2-|-(2)--------2-|-(2)-3-2-0-5-7-5-2--|
|-(3)--0-0-0---------|------0-0-2-3-2---|--------------|-----------3-5-3-0--|
|
|      PM----|              PM------|
| +Q   S S E E E E E   E  E E E E E E E   +H..       E   +E  E E E E E E E
|--------------------|------------------|--------------|--------------------|
|--------------------|------------------|--------------|--------------------|
|--------------------|------------------|--------------|--------------------|
|--------------9---7-|----------------4-|-(4)--------4-|-(4)-5-4-2----------|
|-(5)----------------|---10-----------2-|-(2)--------2-|-(2)-3-2-0-5-7-5-2--|
|-(3)--0-0-0-0---0---|-0----0-0-2-3-2---|--------------|-----------3-5-3-0--|


Chorus:
        PM            PM|               PM   PM
    +E  E  E  E  E  E E E    E  E  E  E E  E E  E
||------------------------|-----------------------|
||o-----------------------|-----------------------|
||---------9--9--9--9-----|--9--9--9--9----7----9-|
||---------9--9--9--9-----|--9--9--9--9----7----9-|
||o-(2)----7--7--7--7-----|--7--7--7--7----5----7-|
||--(0)-0-------------0-0-|-------------0----0----|
|
|       PM            PM|               PM   PM
|   +E  E  E  E  E  E E E    E  E  E  E E  E E  E
||------------------------|-----------------------|
||o-----------------------|-----------------------|
||--------12-12-12-12-----|-12-12-12-12---11---12-|
||--------12-12-12-12-----|-12-12-12-12---11---12-|
||o-(2)---10-10-10-10-----|-10-10-10-10----9---10-|
||--(0)-0-------------0-0-|-------------0----0----|


  PM|             PM|               PM   PM
  E E  E  E  E  E E E    E  E  E  E E  E E E
|---------------------|-----------------------|
|---------------------|-----------------------|
|------9--9--9--9-----|--9--9--9--9----7---5--|
|------9--9--9--9-----|--9--9--9--9----7---5--|
|------7--7--7--7-----|--7--7--7--7----5---3--|
|-0-0-------------0-0-|-------------0----0----|
|
| PM|             PM|               PM   PM
| E E  E  E  E  E E E    E  E  E  E E  E E E
|---------------------|-----------------------|
|---------------------|-----------------------|
|-----12-12-12-12-----|-12-12-12-12---11---5--|
|-----12-12-12-12-----|-12-12-12-12---11---5--|
|-----10-10-10-10-----|-10-10-10-10----9---3--|
|-0-0-------------0-0-|-------------0----0----|


  1.
  +E  E E E E E E E   +E  E E E E E E E
|-------------------|-------------------|
|-------------------|-------------------|
|-(5)-5-5-5-5-----4-|-(4)-4-4-4-4-------|
|-(5)-5-5-5-5-5---4-|-(4)-4-4-4-4-4-----|
|-(3)-3-3-3-3-3---2-|-(2)-2-2-2-2-2---2-|
|-------------------|-----------------0-|
|
| +E  E E E E E E E   +E  E E E E E E E
|-------------------|-------------------|
|-------------------|-------------------|
|-(5)-5-5-5-5-----4-|-(4)-4-4-4-4-------|
|-(5)-5-5-5-5-5---4-|-(4)-4-4-4-4-4-----|
|-(3)-3-3-3-3-3---2-|-(2)-2-2-2-2-2---2-|
|-------------------|-----------------0-|


      PM----------------|     PM|
  +E  E E E E E E E   E E E E E E E E
|-------------------|------------------||
|-------------------|-----------------o||
|-------------------|-----4-5-----7-9--||
|-------------------|---5-------7------||
|-(2)-2-2-2-2-2-2-2-|-3-------5-------o||
|-(0)-0-0-0-0-0-0-0-|------------------||
|
|     PM----------------|     PM|
| +E  E E E E E E E   E E E E E E E E
|-------------------|------------------||
|-------------------|-----------------o||
|-------------------|-----4-5-----7-9--||
|-------------------|---5-------7------||
|-(2)-2-2-2-2-2-2-2-|-3-------5-------o||
|-(0)-0-0-0-0-0-0-0-|------------------||


  2.
        PM    PM                     PM    PM
    E   E  E  E  S  S  E  E E   +E   E  E  E  S  S  E  E E
|-----------------------------|----------------------------|
|-----------------------------|----------------------------|
|---------12----11-12-11------|--------12----11-12-11------|
|------12----12----------12---|-----12----12----------12---|
|-(10)----------------------9-|-(9)----------------------2-|
|--(8)----------------------7-|-(7)----------------------0-|
|
|       PM    PM                     PM    PM
|   E   E  E  E  S  S  E  E E   +E   E  E  E  S  S  E  E E
|-----------------------------|----------------------------|
|-----------------------------|----------------------------|
|----------9-----7--9--7------|---------9-----7--9--7------|
|-------9-----9-----------9---|------9-----9-----------9---|
|-(10)----------------------9-|-(9)----------------------2-|
|--(8)----------------------7-|-(7)----------------------0-|


                                                    D.S.
       PM    PM                     PM    PM
  +E   E  E  E  S  S  E  E E   +E   E  E  E  S  S  E  E E
|----------------------------|----------------------------|
|----------------------------|----------------------------|
|--------12----11-12-11------|--------12----11-12-11------|
|-----12----12----------12---|-----12----12----------12---|
|-(2)----------------------2-|-(2)----------------------2-|
|-(0)----------------------0-|-(0)----------------------0-|
|
|      PM    PM                     PM    PM
| +E   E  E  E  S  S  E  E E   +E   E  E  E  S  S  E  E E
|----------------------------|----------------------------|
|----------------------------|----------------------------|
|---------9-----7--9--7------|---------9-----7--9--7------|
|------9-----9-----------9---|------9-----9-----------9---|
|-(2)----------------------2-|-(2)----------------------2-|
|-(0)----------------------0-|-(0)----------------------0-|

Then play the verse and chorus again,

Then intro again, but altered:
      Gtr I
      PM  PM  PM------|         PM|     PM|   PM  PM------|       PM
  +E  E E E E E E E   E E E E E E E E   E E E E E E E E   E E E E E E E E
|-------------------|-----------------|-----------------|-------------------|
|-------------------|-----------------|-----------------|-------------------|
|-------------------|-----7-9---------|-----------------|-----4-5-----7-9---|
|-------5---4-------|---5-----7-----5-|-----5---4-------|---5-------7-------|
|-(2)-----------7-5-|-3---------5-3---|-------------7-5-|-3-------5---------|
|-(0)-0---0---0-----|-----------------|-0-0---0---0-----|-------------------|
|
| Gtr II
|     PM  PM  PM------|         PM|     PM|   PM  PM------|       PM
| +E  E E E E E E E   E E E E E E E E   E E E E E E E E   E E E E E E E E
|-------------------|-----------------|-----------------|-------------------|
|-------------------|-----------------|-----------------|-------------------|
|-------------------|-----7-9---------|-----------------|-----4-5-----7-9---|
|-------5---4-------|---5-----7-----5-|-----5---4-------|---5-------7-------|
|-(2)-----------7-5-|-3---------5-3---|-------------7-5-|-3-------5---------|
|-(0)-0---0---0-----|-----------------|-0-0---0---0-----|-------------------|


  PM|   PM  PM------|         PM|     PM|   PM    PM|     PM  PM    PM
  E E E E E E E E   E E E E E E E E   E E E E E E E E   E E E E E E E  E
|-----------------|-----------------|-----------------|------------------|
|-----------------|-----------------|-----------------|------------------|
|-----------------|-----7-9---------|-----------------|----------------9-|
|-----5---4-------|---5-----7-----5-|-----5---5-4-----|-5---5---5-4------|
|-------------7-5-|-3---------5-3---|-----------------|----------------7-|
|-0-0---0---0-----|-----------------|-0-0---0-----0-0-|---0---0-----0----|
|
| PM|   PM  PM------|         PM|     PM|   PM    PM|     PM  PM    PM
| E E E E E E E E   E E E E E E E E   E E E E E E E E   E E E E E E E  E
|-----------------|-----------------|-----------------|------------------|
|-----------------|-----------------|-----------------|------------------|
|-----------------|-----7-9---------|-----------------|---------------12-|
|-----5---4-------|---5-----7-----5-|-----9---9-7-----|-9---9---9-7------|
|-------------7-5-|-3---------5-3---|-----------------|---------------10-|
|-0-0---0---0-----|-----------------|-0-0---0-----0-0-|---0---0-----0----|


   +H     E E Q    Q  E E E Q.
|----------------|---------------|----|
|----------------|---------------|----|
|--(9)-----------|---------------|----|
|----------------|----------4----|----|
|--(7)----2------|----------2----|----|
|---------0------|----0-0-0------|----|
|
|  +H     E E Q    Q  E E E Q.
|----------------|---------------|----|
|----------------|---------------|----|
|-(12)-----------|---------------|----|
|----------------|----------4----|----|
|-(10)----2------|----------2----|----|
|---------0------|----0-0-0------|----|


Solo: (not finished)
   Q.    E  E  E  E  E    Q.    E  E  E  S  S  E
|----------------------|-------------------------|
|----------------------|-------------------------|
|-12-------12-14-16-14-|-11-------11-12-14p12-11-|
|-------14-------------|-------12----------------|
|----------------------|-------------------------|
|----------------------|-------------------------|
|
|  W                      W
|----------------------|-------------------------|
|----------------------|-------------------------|
|----------------------|-------------------------|
|--5-------------------|--7----------------------|
|--3-------------------|--5----------------------|
|----------------------|-------------------------|


                |--3--|    |-3--|  |-3--|  |-3--| |-3--|
   Q.   E  E E  E  E  E    E  E E  E  E E  E E  E E  E E
|-----------------------|--------------------------------|
|-----------------------|--------------------------------|
|-[9]--------9-11-12-11-|--9-11-9------------------------|
|-------9-12------------|---------12-10-9-10-9---------9-|
|-----------------------|----------------------12-7-10---|
|-----------------------|--------------------------------|
|
|  W                       W
|-----------------------|--------------------------------|
|-----------------------|--------------------------------|
|-----------------------|--------------------------------|
|-----------------------|-12-----------------------------|
|--2--------------------|-10-----------------------------|
|--0--------------------|--0-----------------------------|


   |-3--| |-3--| |-3--| |--3--|    |-3--|  |--3--|  |--3--|  |--3--|
   E  E E E  E E E  E E E  E  E    E E  E  E  E  E  E  E  E  E  E  E
|-------------------------------|------------------------------------|
|-------------------------------|------------------------------------|
|---------------------7-9-11-12-|-11-9----12-11----14-12-11-14-16-17-|
|-10-----------7-9-10-----------|------12-------14-------------------|
|----10-7-9-10------------------|------------------------------------|
|-------------------------------|------------------------------------|
|
|  W                               W
|-------------------------------|------------------------------------|
|-------------------------------|------------------------------------|
|-------------------------------|------------------------------------|
|--5----------------------------|--4---------------------------------|
|--3----------------------------|--2---------------------------------|
|--3----------------------------|--2---------------------------------|


                            |--3--|  |--3--|   |--3--|  |--3--|
   H        +E   E  E  E    E  E  E  E  E  E   E  E  E  E  E  E
|------------------------|-------------17-19-----------15-17-19-|
|------------------17-19-|-20-19-17-20--------17-19-20----------|
|-16-------(16)-16-------|--------------------------------------|
|------------------------|--------------------------------------|
|------------------------|--------------------------------------|
|------------------------|--------------------------------------|
|
|  E E H.                   Q     E  E  E  Q.
|------------------------|--------------------------------------|
|------------------------|--------------------------------------|
|------------------------|--------------------------------------|
|------------------------|-----------------4--------------------|
|--2---------------------|-----------------2--------------------|
|--0---------------------|--------0--0--0-----------------------|


   H
|-20--------|----------|----------|-------|
|-----------|----------|----------|-------|
|-----------|----------|----------|-------|
|-----------|----------|----------|-------|
|-----------|----------|----------|-------|
|-----------|----------|----------|-------|
|
|  W          W          W           W
|-----------|----------|----------|-------|
|-----------|----------|----------|-------|
|-----------|----------|----------|-------|
|--5--------|-7--------|----------|-12----|
|--3--------|-5--------|-2--------|-10----|
|-----------|----------|-0--------|--0----|


|----------|----------|-------------|---------------|
|----------|----------|-------------|---------------|
|----------|----------|-------------|---------------|
|----------|----------|-------------|---------------|
|----------|----------|-------------|---------------|
|----------|----------|-------------|---------------|
|
| W          W          E E H.        Q  E E E Q.
|----------|----------|-------------|---------------|
|----------|----------|-------------|---------------|
|----------|----------|-------------|---------------|
|-5--------|-4--------|-------------|----------4----|
|-3--------|-2--------|-2-----------|----------2----|
|-3--------|-2--------|-0-----------|----0-0-0------|




comments
print report bad tab
5 comments total. Showing first comments.
0 reply
Batflames wrote on November 19 2008, 08:39 pm

whats the tab for the rhythm that can clearly be heard at 2:30

0 reply
1sheldon wrote on December 9 2008, 06:30 pm

wow such a hard song.

0 reply
Clay_0104 wrote on January 10 2009, 12:51 pm

Not too bad

I want to post or [tab]
guest
You may want to rate the tab now too:
select rating
Please do not post tabs as comments. Select "correction" instead!