Oops, an error
Loading. Please wait.

Weak Willed Tab

ver1
ver1

Intro

Whole song

Interactive

More versions @911Tabs.com
30,662 views 21 this week
41 commentsread comments
1 2 3 4 5
excellent!
x 48
add to favorites launch autoscroll
font size
0
reset
Autoscroll
+/-
esc
set tempo
stop
Contributor
WARNING: You are trying to view
                                    content from Ultimate-Guitar.com
                                    in an unauthorized application,
                                    which is prohibited.

                                    Please use an official Ultimate
                                    Guitar Tabs application for iPhone,
                                    iPad or Android to access legitimate
                                    chords, guitar, bass, and drum tabs
                                    from Ultimate-Guitar.com database.

                                    Type "ultimate guitar tabs" in Apple
                                    App Store's or Android Market's
                                    search to find the application.
All That Remains - The Weak Willed
Tabbed by: rcw110131

Yes, here it is finally.  The tab you've all been waiting for lol.  Sorry it
took so long to get around to.  I also made a Guitar Pro version of this,
so check that out.  Enjoy!!!


UPDATED 6/14/08 - after seeing a few live videos and stuff I changed a few
notes of the solo and redid it for easier playing.  Well, the one part near
the end when you go down to the 6th fret might not be easy but that's the way
Oli plays it!


Guitar I (DGCFAD): Left Guitar
Guitar II (DGCFAD): Right Guitar
Guitar III (DGCFAD): Extra Guitar 1 
Guitar IV (DGCFAD): Extra Guitar 2
Guitar V (DGCFAD): Extra Guitar 3
Guitar VI (DbGbBEAbDb): Extra Guitar 4

h = hammer-on
p = pull-off
t = tap
/ = slide up
\ = slide down
~ = vibrato
* = rest (stop string from vibrating...duh)

===============================================================================
-Intro Riff- (0:00 - 0:17)


  Guitars I + II:
D|-----------------------------------|-----------------------------------|
A|-----------------------------------|-----------------------------------|
F|-----------------------------------|-----------------------------------|
C|-----------------------------------|--------------------9-9-9-9--------|
G|7-7-7-7-10-10-10-10-9-9-9-9-7-7-7-7|10-10-10-10-9-9-9-9---------9-9-9-9|
D|-----------------------------------|-----------------------------------|
PM. . . .  .  .  .  . . . . . . . . .  .  .  .  . . . . . . . . . . . . .

D|-----------------------------------|---------------------------------------|
A|-----------------------------------|---------------------------------------|
F|-----------------------------------|---------------------------------------|
C|-----------------------------------|--------------------10-10-10-10--------|
G|6-6-6-6-10-10-10-10-9-9-9-9-6-6-6-6|10-10-10-10-9-9-9-9-------------9-9-9-9|
D|-----------------------------------|---------------------------------------|
PM. . . .  .  .  .  . . . . . . . . .  .  .  .  . . . . .  .  .  .  . . . . .

D|-----------------------------------|-----------------------------------|
A|-----------------------------------|-----------------------------------|
F|-----------------------------------|-----------------------------------|
C|-----------------------------------|--------------------9-9-9-9--------|
G|7-7-7-7-10-10-10-10-9-9-9-9-7-7-7-7|10-10-10-10-9-9-9-9---------9-9-9-9|
D|-----------------------------------|-----------------------------------|
PM. . . .  .  .  .  . . . . . . . . .  .  .  .  . . . . . . . . . . . . .

D|-------------------------------|-----------------------------------|
A|-------------------------------|-----------------------------------|
F|-------------------------------|-----------------------------------|
C|-------------------------------|-----------------------------------|
G|7-7-7-7-6-6-6-6----------------|--------10-10-10-10-6-6-6-6-9-9-9-9|
D|----------------8-8-8-8-6-6-6-6|7-7-7-7----------------------------|
PM. . . . . . . . . . . . . . . . . . . .  .  .  .  . . . . . . . . .

                               then

  Guitar II: same as above

  Guitar I:
D|-----------------------------------------------|------------------------
A|-----------------------------------------------|------------------------
F|-----------------------------------------------|------------------------
C|-----------------------------------------------|------------------------
G|10-10-10-10-14-14-14-14-12-12-12-12-10-10-10-10|14-14-14-14-12-12-12-12-
D|-----------------------------------------------|------------------------
PM .  .  .  .  .  .  .  .  .  .  .  .  .  .  .  .  .  .  .  .  .  .  .  .

------------------------|
------------------------|
------------------------|
-13-13-13-13------------|
-------------12-12-12-12|
------------------------|
  .  .  .  .  .  .  .  .

D|---------------------------------------|-----------------------------------|
A|---------------------------------------|-----------------------------------|
F|---------------------------------------|-----------------------------------|
C|---------------------------------------|-----------------------------------|
G|9-9-9-9-14-14-14-14-12-12-12-12-9-9-9-9|10-10-10-10-9-9-9-9-7-7-7-7-6-6-6-6|
D|---------------------------------------|-----------------------------------|
PM. . . .  .  .  .  .  .  .  .  . . . . .  .  .  .  . . . . . . . . . . . . .

D|-----------------------------------------------|------------------------
A|-----------------------------------------------|------------------------
F|-----------------------------------------------|------------------------
C|-----------------------------------------------|------------------------
G|10-10-10-10-14-14-14-14-12-12-12-12-10-10-10-10|14-14-14-14-12-12-12-12-
D|-----------------------------------------------|------------------------
PM .  .  .  .  .  .  .  .  .  .  .  .  .  .  .  .  .  .  .  .  .  .  .  .

------------------------|
------------------------|
------------------------|
-13-13-13-13------------|
-------------12-12-12-12|
------------------------|
  .  .  .  .  .  .  .  .

D|---------------------------------------|-----------------------------------|
A|---------------------------------------|-----------------------------------|
F|---------------------------------------|-----------------------------------|
C|---------------------------------------|--------9-9-9-9-10-10-10-10-7-7-7-7|
G|10-10-10-10-9-9-9-9-7-7-7-7-10-10-10-10|9-9-9-9----------------------------|
D|---------------------------------------|-----------------------------------|
PM .  .  .  . . . . . . . . .  .  .  .  . . . . . . . . .  .  .  .  . . . . .


===============================================================================
-Break- (0:18 - 0:22)


  Guitar I:
D|----------------|----------------|----------------|------------------|
A|----------------|----------------|----------------|------------------|
F|----------------|----------------|----------------|------------------|
C|----------------|----------------|----------------|\\\\\\\\\\\\\\\\\\|
G|----------------|----------------|----------------|\\\\pick slide\\\\|
D|----------------|----------------|----------------|\\\\\\\\\\\\\\\\\\|

  Guitar II:
D|----------------|----------------|----------------|------------------|
A|----------------|----------------|----------------|------------------|
F|----------------|----------------|----------------|------------------|
C|----------------|----------------|----------------|------------------|
G|2h3p2h3---------|----6h7---------|1-----------1---|0--1--0--4--3--1--|
D|--------0-0-0-0-|0-0-----000-000-|--------000-----|0--1--0--4--3--1--|
PM        . . . .  . .     ... ...          ...      .  .  .  .  .  .


===============================================================================
-Verse Riff 1- (0:23 - 0:31)


  Guitars I + II:
D|----------------|----------------|----------------|------------------|
A|----------------|----------------|----------------|------------------|
F|----------------|----------------|----------------|------------------|
C|----------------|----------------|----------------|------------------|  x2
G|2h3p2h3---------|----6h7---------|1-----------1---|0--1--0--4--3--1--|
D|--------0-0-0-0-|0-0-----000-000-|--------000-----|0--1--0--4--3--1--|
PM        . . . .  . .     ... ...          ...      .  .  .  .  .  .


===============================================================================
-Fill- (0:32 - 0:35)


  Guitar I:
D|-----------------------------------------------|------------------------
A|-----------------------------------------------|------------------------
F|-----------------------------------------------|------------------------
C|-----------------------------------------------|------------------------
G|10-10-10-10-14-14-14-14-12-12-12-12-10-10-10-10|14-14-14-14-12-12-12-12-
D|-----------------------------------------------|------------------------
PM .  .  .  .  .  .  .  .  .  .  .  .  .  .  .  .  .  .  .  .  .  .  .  .

------------------------|
------------------------|
------------------------|
-13-13-13-13------------|
-------------12-12-12-12|
------------------------|
  .  .  .  .  .  .  .  .

  Guitar II:
D|-----------------------------------|-----------------------------------|
A|-----------------------------------|-----------------------------------|
F|-----------------------------------|-----------------------------------|
C|-----------------------------------|--------------------9-9-9-9--------|
G|7-7-7-7-10-10-10-10-9-9-9-9-7-7-7-7|10-10-10-10-9-9-9-9---------9-9-9-9|
D|-----------------------------------|-----------------------------------|
PM. . . .  .  .  .  . . . . . . . . .  .  .  .  . . . . . . . . . . . . .


===============================================================================
-Verse Riff 2- (0:35 - 0:44)


  Guitar I:
D|----------------|----------------|----------------|------------------|
A|----------------|----------------|----------------|------------------|
F|----------------|----------------|----------------|------------------|
C|----------------|----------------|----------------|------------------|
G|2h3p2h3---------|----6h7---------|1-----------1---|0--1--0--4--3--1--|
D|--------0-0-0-0-|0-0-----000-000-|--------000-----|0--1--0--4--3--1--|
PM        . . . .  . .     ... ...          ...      .  .  .  .  .  .

  D|----------------|----------------|----------------|--------------------|
  A|----------------|----------------|----------------|--------------------|
  F|----------------|----------------|----------------|--------------------|
  C|----------------|----------------|----------------|--------\\\\\\\\\\\\|
  G|2h3p2h3---------|----6h7---------|1-----------1---|0--1--0-\pick slide\|
  D|--------0-0-0-0-|0-0-----000-000-|--------000-----|0--1--0-\\\\\\\\\\\\|
  PM        . . . .  . .     ... ...          ...      .  .  .


  Guitar II:
D|----------------|-----------------|----------------|------------------|
A|----------------|-----------------|----------------|------------------|
F|----------------|-----------------|----------------|------------------|
C|----------------|-----------------|----------------|------------------|
G|6h7p6h7---------|----9h10---------|6-----------6---|0--1--0--4--3--1--|
D|--------0-0-0-0-|0-0------000-000-|--------000-----|0--1--0--4--3--1--|
PM        . . . .  . .     ... ...          ...      .  .  .  .  .  .

  D|----------------|-----------------|----------------|--------------------|
  A|----------------|-----------------|----------------|--------------------|
  F|----------------|-----------------|----------------|--------------------|
  C|----------------|-----------------|----------------|--------\\\\\\\\\\\\|
  G|6h7p6h7---------|----9h10---------|6-----------6---|0--1--0-\pick slide\|
  D|--------0-0-0-0-|0-0------000-000-|--------000-----|0--1--0-\\\\\\\\\\\\|
  PM        . . . .  . .     ... ...          ...      .  .  .


===============================================================================
-Verse Riff 3- (0:44 - 0:53)


  Guitars I + II:
D|----------------|----------------|----------------|------------------|
A|----------------|----------------|----------------|------------------|
F|----------------|----------------|----------------|------------------|
C|4/5\4/5---------|----------------|8-----------8---|------------------|  x2
G|4/5\4/5---------|----6/7---------|6-----------6---|0--1--0--4--3--1--|
D|--------0-0-0-0-|0-0-6/7-000-000-|6-------000-6---|0--1--0--4--3--1--|
PM        . . . .  . .     ... ...          ...      .  .  .  .  .  .


===============================================================================

-Intro Riff Again- (0:53 - 1:10)

===============================================================================
-Interlude- (1:11 - 1:29)

                                                                       __
  Guitar I:                                                              \
D|----------------|-----------------|-----------------|----------------| |
A|----------------|-----------------|-----------------|----------------| |
F|4---5---4-------|--------11-------|12---------------|4---5---4-------| |
C|----------------|-----------------|-----------------|----------------| |
G|2---3---2-------|---------9-------|10---------------|2---3---2-------| |
D|------------0---|0---0------------|-----0---0---0---|------------0---| |
PM            .    .   .                  .   .   .                .     |
                                                                         |
  Guitar II:                                                             |
D|----------------|----------------|----------------|----------------|   |
A|----------------|----------------|----------------|----------------|   |
F|4---5---4-------|--------8-------|9---------------|4---5---4-------|   |
C|----------------|----------------|----------------|----------------|   |
G|2---3---2-------|--------6-------|7---------------|2---3---2-------|   x2
D|------------0---|0---0-----------|----0---0---0---|------------0---|   |
PM            .    .   .                  .   .   .              .       |
                                                                         |
                                  then                                   |
                                                                         |
  Guitars I + II:                                                        |
D|----------------|----------------|----------------|----------------|   |
A|----------------|----------------|----------------|----------------|   |
F|3---5---3-------|----3-------3---|--------3-------|----3-----------|   |
C|x---x---x-------|----1-------1---|--------1-------|----1-----------|   |
G|1---3---1-------|----1-------1---|--------1-------|----1-----------|   |
D|------------0---|0-------0-------|0---0-------0---|0-------0---0---|   |
PM            .    .       .        .   .       .    .       .   .     __/
                                                                      

===============================================================================
-Interlude...Part 2?- (1:29 - 1:47)


  Guitars I + II:
D|----------------|----------------|----------------|----------------|
A|----------------|----------------|----------------|----------------|
F|----------------|----------------|----------------|----------------|
C|2---------------|----------------|2---------------|----------------|
G|2---------------|--------2-2-*---|2---------------|--------2-2-*---|
D|0---------------|--------0-0-*---|0---------------|--------0-0-*---|
PM                         . .                               . .

D|----------------|----------------|----------------|----------------|
A|----------------|----------------|----------------|----------------|
F|----------------|----------------|----------------|----------------|
C|8---------------|----------------|----------------|----------------|
G|6---------------|----------------|2-2-*-----------|----------------|
D|6---------------|----------------|0-0-*-----------|----0000/12\\\\\|
PM                                  . .                  ....

D|----------------|----------------|----------------|----------------|
A|----------------|----------------|----------------|----------------|
F|----------------|----------------|----------------|----------------|
C|2---------------|----------------|2---------------|----------------|
G|2---------------|--------2-2-*---|2---------------|--------2-2-*---|
D|0---------------|--------0-0-*---|0---------------|--------0-0-*---|
PM                         . .                               . .

D|----------------|----------------|----------------|----------------|
A|----------------|----------------|----------------|----------------|
F|----------------|----------------|----------------|----------------|
C|8---------------|----------------|--------3-------|6-------5-------|
G|6---------------|--------2-2-*---|--------3-------|6-------5-------|
D|6---------------|--------0-0-*---|--------1-------|4-------3-------|
PM                         . .

                                                   __
  Guitar III (Clean):                                \
D|12--------|12--------|12--------|12--------|       |
A|---8----8-|---8----8-|---8----8-|---8----8-|       |
F|-----11---|-----11---|-----11---|-----11---|       |
C|----------|----------|----------|----------|       |
G|----------|----------|----------|----------|       |
D|----------|----------|----------|----------|       |
                                                     x2
D|11--------|11--------|11--------|11--------|       |
A|---8----8-|---8----8-|---8----8-|---8----8-|       |
F|-----11---|-----11---|-----11---|-----11---|       |
C|----------|----------|----------|----------|       |
G|----------|----------|----------|----------|       |
D|----------|----------|----------|----------|       |
                                                   __/

===============================================================================
-Interlude Part 3?!- (1:47 - 2:06)


  Guitars I + II:
D|----------------|----------------|----------------|----------------|
A|----------------|----------------|----------------|----------------|
F|----------------|----------------|----------------|----------------|
C|--------2-------|----------------|--------8-------|----------------|  x4
G|2-2-*---2-------|----------------|2-2-*---6-------|----------------|
D|0-0-*---0-------|----------------|0-0-*---6-------|----------------|


  Guitar III (Clean):
D|12--------|12--------|11--------|11--------|
A|---8----8-|---8----8-|---8----8-|---8----8-|
F|-----11---|-----11---|-----11---|-----11---|
C|----------|----------|----------|----------|  x4
G|----------|----------|----------|----------|
D|----------|----------|----------|----------|


  Guitar IV:
D|------------------|-----------------|-----------------|----------------|
A|------------------|-----------------|-----------------|----------------|
F|9-------12---11---|----9-------16---|----\\\\11-------|----------------|
C|------------------|-----------------|-----------------|----------------| x4
G|7-------10----9---|----7-------14---|----\\\\\9-------|----------------|
D|------------------|-----------------|-----------------|----------------|


  Guitar V: (this comes in on the last two times only)
D|----------------|----------------|----------------|----------------|
A|----------------|----------------|----------------|----------------|
F|----------------|----------------|----------------|----------------|
C|5-------9---7---|----5-------4---|----\\\\1-------|----------------|  x2
G|----------------|----------------|----------------|----------------|
D|----------------|----------------|----------------|----------------|

                               then

  Guitars I + II:
D|----------------|
A|----------------|
F|----------------|
C|----------------|
G|2-2-*---2-2-*---|
D|0-0-*---0-0-*---|


===============================================================================
-Verse Riff 1 Again- (2:06 - 2:24)


  Guitars I + II:
D|----------------|----------------|----------------|------------------|
A|----------------|----------------|----------------|------------------|
F|----------------|----------------|----------------|------------------|
C|----------------|----------------|----------------|------------------|  x4
G|2h3p2h3---------|----6h7---------|1-----------1---|0--1--0--4--3--1--|
D|--------0-0-0-0-|0-0-----000-000-|--------000-----|0--1--0--4--3--1--|
PM        . . . .  . .     ... ...          ...      .  .  .  .  .  .


===============================================================================
-Quick Solo- (2:24 - 2:29)


  Guitars I + II:
D|----------------|------------------|----------------|----------------|
A|----------------|------------------|----------------|----------------|
F|----------------|------------------|4---------------|----------------|
C|3---------------|------------------|2---------------|----------------|
G|3---------------|1--2--1--5--4--2--|2---------------|2-2-*---2-2-*---|
D|1---------------|1--2--1--5--4--2--|----------------|0-0-*---0-0-*---|
PM                 .  .  .  .  .  .                    . .     . .


  Guitar III:
D|--------------8h13p8----8h13/17-|---------17/20-17-19-17-16----------|
A|-----------10--------10---------|18----18-------------------18-17-16-|
F|--------10----------------------|---17-------------------------------|
C|-----10-------------------------|------------------------------------|
G|8h12----------------------------|------------------------------------|
D|--------------------------------|------------------------------------|

D|19p14----14-11------------------|---------------11h14t19p14p11----|
A|------16-------12---------------|------------12----------------12-|
F|------------------11------------|---------11----------------------|
C|---------------------13-9-------|----9-13-------------------------|
G|--------------------------9-6---|6/9------------------------------|
D|------------------------------7-|---------------------------------|

D|------------------|
A|/17~--------------|
F|------------------|
C|------------------|
G|------------------|
D|------------------|


===============================================================================

-Oh Hey, Look, That Intro Riff Again- (2:29 - 2:47)

===============================================================================
-Outro...Build-up...?- (2:47 - 3:14)

                                                                      __
  Guitars I + II:                                                       \
D|----------------|----------------|----------------|----------------|  |
A|----------------|----------------|----------------|----------------|  |
F|----------------|------------4---|----------------|----------------|  |
C|2---------------|------------4---|----------------|----------------|  |
G|2---------------|--------2---2---|----------------|----------------|  |
D|0---------------|--------0-------|----------------|----------------|  |
PM                         .                                            |
                                                                        x3
D|----------------|----------------|----------------|----------------|  |
A|----------------|----------------|----------------|----------------|  |
F|2---------------|------------4---|----------------|----------------|  |
C|2---------------|------------2---|------------5\\\|4---------------|  |
G|0---------------|--------2---2---|--------2---3\\\|2---------------|  |
D|----------------|--------2-------|--------2---3\\\|2---------------|  |
PM                         .                .                         __/

                                                                          __
  Guitar III:                                                               \
D|------------------|-----------------|-----------------|------------------||
A|------------------|-----------------|-----------------|------------------||
F|9-------12---11---|----9-------16---|----\\\\11-------|--------11---12---||
C|------------------|-----------------|-----------------|------------------||
G|7-------10----9---|----7-------14---|----\\\\\9-------|---------9---10---||
D|------------------|-----------------|-----------------|------------------||
PM                                                                          |
                                                                           x3
D|-----------------|------------------|-----------------|----------------|  |
A|-----------------|------------------|-----------------|----------------|  |
F|14---------------|-----16------17---|16\\\9-------5---|4---------------|  |
C|-----------------|------------------|-----------------|----------------|  |
G|12---------------|-----14------15---|14\\\7-------3---|2---------------|  |
D|-----------------|------------------|-----------------|----------------|  |
PM                                                                        __/

                                                                      __
  Guitar IV: (this comes in on the last two times only)                 \
D|----------------|----------------|----------------|----------------|  |
A|----------------|----------------|----------------|----------------|  |
F|----------------|--------4-------|----------------|--------5-------|  |
C|--5-4-5---5-4-5-|--5-4-5---5-4-5-|--5-4-5---5-4-5-|--5-4-5---5-4-5-|  |
G|7-------7-------|7---------------|6-------6-------|6---------------|  |
D|----------------|----------------|----------------|----------------|  |
PM. . . . . . . .  . . . . . . . .  . . . . . . . .  . . . . . . . .    |
                                                                        |
D|----------------------|---------------------|--------------------     |
A|----------------------|---------------------|--------------------     |
F|----------------------|---------------------|--------------------     |
C|---10-9-10----10-9-10-|---10-9-10---10-9-10-|--10-9-10---10-9-10-     x2
G|12---------12---------|10---------9---------|8---------8---------     |
D|----------------------|---------------------|--------------------     |
PM .  . .  .  .  . .  .   .  . .  . .  . .  .  .  . .  . .  . .  .      |
                                                                        |
------------------|                                                     |
------------------|                                                     |
9---------8-------|                                                     |
--10-9-10---9-8-9-|                                                     |
------------------|                                                     |
------------------|                                                     |
.  . .  . . . . .                                                     __/   


===============================================================================
-Outro- (3:14 - end)

                                                                          __
  Guitars I + II (both clean):                                              \
D|--------7--------|*-----------7---|----------------|----------------|     |
A|8-----------10---|*---8---*-------|--------7-------|----------------|     |
F|-----------------|----------------|----------------|----------------|     |
C|----9------------|----------------|----9-----------|----------------|     |
G|-----------------|----------------|----------------|----------------|     |
D|-----------------|----------------|----------------|----------------|     |
                                                                           x2
D|---------8---7---|-----------------|------------------|------------------||
A|10---------------|----10-----------|------------------|------------------||
F|-----9-----------|---------9-------|10----------------|11-----------11---||
C|-----------------|-------------7---|-------10-\\\-7---|-----7-/-9--------||
G|-----------------|-----------------|------------------|------------------||
D|-----------------|-----------------|------------------|------------------||
                                                                          __/
                                    then                                  __
                                                                            \
D|--------7--------|*-----------7---|----------------|----------------|     |
A|8-----------10---|*---8---*-------|--------7-------|--------7---8---|     |
F|-----------------|----------------|----------------|----------------|     |
C|----9------------|----------------|----9-----------|----------------|     |
G|-----------------|----------------|----------------|----------------|     |
D|-----------------|----------------|----------------|----------------|     |
                                                                           x2
D|---------8---7---|-----------------|------------------|------------------||
A|10---------------|----10-----------|------------------|------------------||
F|-----9-----------|---------9-------|10----------------|11-----------11---||
C|-----------------|-------------7---|-------10-\\\-7---|-----7-/-9--------||
G|-----------------|-----------------|------------------|------------------||
D|-----------------|-----------------|------------------|------------------||
                                                                          __/
                               lastly, end on:

D|----------------|
A|8---------------|
F|----------------|
C|9---------------|
G|----------------|
D|----------------|

                                                                       __
  Guitar VI (clean):                                                     \
Db|----------------|----------------|----------------|----------------|  |
Ab|----------------|----------------|----------------|----------------|  |
 E|----------------|----------------|----------------|----------------|  |
 B|----------------|----------------|----------------|----------------|  |
Gb|----------------|----------------|----------------|----------------|  |
Db|1-----------3---|*---1---*---0---|----------------|----------------|  |
                                                                        x2
Db|----------------|----------------|----------------|----------------|  |
Ab|----------------|----------------|----------------|----------------|  |
 E|----------------|----------------|----------------|----------------|  |
 B|----------------|----------------|----------------|----------------|  |
Gb|----------------|----------------|----------------|----------------|  |
Db|6-----------4---|-------3--------|2---------------|0---------------|  |
                                                                       __/
                                   then                                __
                                                                         \
Db|----------------|----------------|----------------|----------------|  |
Ab|----------------|----------------|----------------|----------------|  |
 E|----------------|----------------|----------------|----------------|  |
 B|----------------|----------------|----------------|----------------|  |
Gb|----------------|------------3---|----------------|----------------|  |
Db|1-----------3---|*---1---*-------|----------------|----------------|  |
                                                                        x2
Db|----------------|----------------|----------------|----------------|  |
Ab|----------------|----------------|----------------|----------------|  |
 E|----------------|----------------|----------------|----------------|  |
 B|----------------|----------------|----------------|----------------|  |
Gb|----------------|----------------|----------------|----------------|  |
Db|6-----------4---|-------3--------|2---------------|0---------------|  |
                                                                       __/
                             lastly, end on:

Db|----------------|
Ab|----------------|
 E|----------------|
 B|----------------|
Gb|----------------|
Db|1---------------|


                                                                          __
  Guitar III: (this comes in on the last two times only)                    \
D|------------------|-----------------|-----------------|------------------||
A|------------------|-----------------|-----------------|------------------||
F|9-------12---11---|----9-------16---|----\\\\11-------|--------11---12---||
C|------------------|-----------------|-----------------|------------------||
G|7-------10----9---|----7-------14---|----\\\\\9-------|---------9---10---||
D|------------------|-----------------|-----------------|------------------||
PM                                                                          |
                                                                           x2
D|-----------------|------------------|-----------------|----------------|  |
A|-----------------|------------------|-----------------|----------------|  |
F|14---------------|-----16------17---|16\\\9-------5---|4---------------|  |
C|-----------------|------------------|-----------------|----------------|  |
G|12---------------|-----14------15---|14\\\7-------3---|2---------------|  |
D|-----------------|------------------|-----------------|----------------|  |
PM                                                                        __/

                               lastly, end on:

D|----------------|
A|----------------|
F|9---------------|
C|----------------|
G|7---------------|
D|----------------|




THE END!
comments
print report bad tab
41 comments total. Showing first comments. show 1 bad comment
+7 reply
rcw110131 wrote on June 20 2007, 04:18 pm

Wow you must really be ****ing retarded. If you seriously think that a band sits down all together and records a song for an album at once, well then you're pretty dumb. It's called overdubbing you ass, they record different guitar riffs and layer them over each other. Gather a little knowledge before you make dumbass comments like that.

+5 reply
unholy_love wrote on June 21 2007, 12:27 am

Duhh.. Evil Vampire dude.
YOU'RE FUCKING RETARDED!!
Literally..

I want to post or [tab]
guest
You may want to rate the tab now too:
select rating
Please do not post tabs as comments. Select "correction" instead!