Oops, an error
Loading. Please wait.

Weak Willed Tab

ver2
ver2

Intro

Whole song

Interactive

More versions @911Tabs.com
905 views 6 this week
2 commentsread comments
1 2 3 4 5
excellent!
x 2
Autoscroll
+/-
esc
set tempo
stop
Contributor
Difficulty
Tuning
advanced
D G C F A D
NEW! There's an official Ultimate Guitar app which is ideal
for learning songs when you're away from computer. Get the app
WARNING: You are trying to view
                                    content from Ultimate-Guitar.com
                                    in an unauthorized application,
                                    which is prohibited.

                                    Please use an official Ultimate
                                    Guitar Tabs application for iPhone,
                                    iPad or Android to access legitimate
                                    chords, guitar, bass, and drum tabs
                                    from Ultimate-Guitar.com database.

                                    Type "ultimate guitar tabs" in Apple
                                    App Store's or Android Market's
                                    search to find the application.
#----------------------------------PLEASE NOTE---------------------------------#
#This file is the author's own work and represents their interpretation of the #
#song. You may only use this file for private study, scholarship, or research. #
#------------------------------------------------------------------------------##

                                 THE WEAK WILLED
                         As recorded by All That Remains
                    (From the 2006 Album THE FALL OF IDEALS)

Words and Music by Phillip Labonte, Oliver Herbert, Mike Martin and Jeanne Sagan

Gtr I (D G C F A D) - 'Guitar 1'
Gtr II (D G C F A D) - 'Guitar 2'
Gtr III (D G C F A D) - 'Guitar 3'
Gtr IV (D G C F A D) - 'Guitar 4'

   Intro
    Fast Metal Q=212
   4/4
    Gtrs I, II
    PM----------------------------------------------------------------------|
    S S S S  S  S  S  S S S S S S S S S    S  S  S  S S S S S S S S S S S S S
||--------------------------------------|-------------------------------------|
||o-------------------------------------|-------------------------------------|
||--------------------------------------|-------------------------------------|
||--------------------------------------|---------------------9-9-9-9---------|
||o-7-7-7-7-10-10-10-10-9-9-9-9-7-7-7-7-|-10-10-10-10-9-9-9-9---------9-9-9-9-|
||--------------------------------------|-------------------------------------|


  1.
  PM-----------------------------------
  S S S S  S  S  S  S S S S S S S S S
|-------------------------------------|
|-------------------------------------|
|-------------------------------------|
|-------------------------------------|
|-6-6-6-6-10-10-10-10-9-9-9-9-6-6-6-6-|
|-------------------------------------|


 ---------------------------------------|
   S  S  S  S S S S S  S  S  S  S S S S S
|------------------------------------------||
|-----------------------------------------o||
|------------------------------------------||
|---------------------10-10-10-10----------||
|-10-10-10-10-9-9-9-9-------------9-9-9-9-o||
|------------------------------------------||


  2.
  PM----------------------------|
  S S S S S S S S S S S S S S S S   S S S S  S  S  S  S S S S S S S S S
|---------------------------------|-------------------------------------||
|---------------------------------|-------------------------------------||
|---------------------------------|-------------------------------------||
|---------------------------------|-------------------------------------||
|-7-7-7-7-6-6-6-6-----------------|---------10-10-10-10-6-6-6-6-9-9-9-9-||
|-----------------8-8-8-8-6-6-6-6-|-7-7-7-7-----------------------------||


    Gtr I
     PM----------------------------------------------
     S  S  S  S  S  S  S  S  S  S  S  S  S  S  S  S
||--------------------------------------------------|
||o-------------------------------------------------|
||--------------------------------------------------|
||--------------------------------------------------|
||o--7--7--7--7-10-10-10-10--9--9--9--9--7--7--7--7-|
||--------------------------------------------------|
|
|   Gtr II
|    PM----------------------------------------------
|    S  S  S  S  S  S  S  S  S  S  S  S  S  S  S  S
||--------------------------------------------------|
||o-------------------------------------------------|
||--------------------------------------------------|
||--------------------------------------------------|
||o-10-10-10-10-14-14-14-14-12-12-12-12-10-10-10-10-|
||--------------------------------------------------|


 ----------------------------------------------|
   S  S  S  S  S  S  S  S  S  S  S  S  S  S  S  S
|------------------------------------------------|
|------------------------------------------------|
|------------------------------------------------|
|--------------------------9--9--9--9------------|
|-10-10-10-10--9--9--9--9--------------9--9--9--9|
|------------------------------------------------|
|
|----------------------------------------------|
|  S  S  S  S  S  S  S  S  S  S  S  S  S  S  S  S
|------------------------------------------------|
|------------------------------------------------|
|------------------------------------------------|
|-------------------------13-13-13-13------------|
|-14-14-14-14-12-12-12-12-------------12-12-12-12|
|------------------------------------------------|


  1.
  PM---------------------------------------
  S S S S  S  S  S  S  S  S  S  S S S S S
|-----------------------------------------|
|-----------------------------------------|
|-----------------------------------------|
|-----------------------------------------|
|-6-6-6-6-10-10-10-10--9--9--9--9-6-6-6-6-|
|-----------------------------------------|
|
| S S S S  S  S  S  S  S  S  S  S S S S S
|-----------------------------------------|
|-----------------------------------------|
|-----------------------------------------|
|-----------------------------------------|
|-9-9-9-9-14-14-14-14-12-12-12-12-9-9-9-9-|
|-----------------------------------------|


 ---------------------------------------|
   S  S  S  S S S S S  S  S  S  S S S S S
|------------------------------------------||
|-----------------------------------------o||
|------------------------------------------||
|---------------------10-10-10-10----------||
|-10-10-10-10-9-9-9-9-------------9-9-9-9-o||
|------------------------------------------||
|
|  S  S  S  S S S S S  S  S  S  S S S S S
|------------------------------------------||
|-----------------------------------------o||
|------------------------------------------||
|------------------------------------------||
|-10-10-10-10-9-9-9-9--7--7--7--7-6-6-6-6-o||
|------------------------------------------||


  2.
   PM-------------------------------|
   S  S  S  S S S S S S S S S S S S S
|-------------------------------------|
|-------------------------------------|
|-------------------------------------|
|-------------------------------------|
|--7--7--7--7-6-6-6-6-----------------|
|---------------------8-8-8-8-6-6-6-6-|
|
|  S  S  S  S S S S S S S S S S S S S
|-------------------------------------|
|-------------------------------------|
|-------------------------------------|
|-------------------------------------|
|-10-10-10-10-9-9-9-9-7-7-7-7-9-9-9-9-|
|-------------------------------------|


   S  S  S  S  S  S  S  S  S  S  S  S  S  S  S  S
|-------------------------------------------------||
|-------------------------------------------------||
|-------------------------------------------------||
|-------------------------------------------------||
|-------------10-10-10-10--6--6--6--6--9--9--9--9-||
|--7--7--7--7-------------------------------------||
|
|  S  S  S  S  S  S  S  S  S  S  S  S  S  S  S  S
|-------------------------------------------------||
|-------------------------------------------------||
|-------------------------------------------------||
|-------------------------------------------------||
|-10-10-10-10-14-14-14-14-15-15-15-15-12-12-12-12-||
|-------------------------------------------------||


          PM----------|     PM--------|        PM--|      PM------------|
                                                          |--3--| |--3--|
  E E E E E E E E   E E E E S S E S S E   H    S S E Q    Q Q   Q Q Q   Q
|-----------------|---------------------|---------------|------------------|
|-----------------|---------------------|---------------|------------------|
|-4S5S4S5---------|-----8S9-------------|-3----------3--|------------------|
|-----------------|---------------------|---------------|------------------|
|-2S3S2S3---------|-----6S7-------------|-1----------1--|---3-----6-5---3--|
|---------0-0-0-0-|-0-0-----0-0-0-0-0-0-|------0-0-0----|-0-1---0-4-3---1--|
|
|                                                         Q   Q   Q   Q
|-----------------|---------------------|---------------|------------------|
|-----------------|---------------------|---------------|------------------|
|-----------------|---------------------|---------------|------------------|
|-----------------|---------------------|---------------|------------------|
|-----------------|---------------------|---------------|-xs==xs==xs==x----|
|-----------------|---------------------|---------------|-xs==xs==xs==x----|


 Verse
  Gtrs I, II
          PM----------|     PM--------|        PM--|      PM--------|
                                                          |-3-| |-3-|
  E E E E E E E E   E E E E S S E S S E   H    S S E Q    Q Q Q Q Q Q
|-----------------|---------------------|---------------|--------------|
|-----------------|---------------------|---------------|--------------|
|-4S5S4S5---------|-----8S9-------------|-3----------3--|--------------|
|-----------------|---------------------|---------------|--------------|
|-2S3S2S3---------|-----6S7-------------|-1----------1--|---3---6-5-3--|
|---------0-0-0-0-|-0-0-----0-0-0-0-0-0-|------0-0-0----|-0-1-0-4-3-1--|


          PM----------|     PM--------|        PM--|      PM--------|
                                                          |-3-| |-3-|
  E E E E E E E E   E E E E S S E S S E   H    S S E Q    Q Q Q Q Q Q
|-----------------|---------------------|---------------|--------------|
|-----------------|---------------------|---------------|--------------|
|-4S5S4S5---------|-----8S9-------------|-3----------3--|--------------|
|-----------------|---------------------|---------------|--------------|
|-2S3S2S3---------|-----6S7-------------|-1----------1--|---3---6-5-3--|
|---------0-0-0-0-|-0-0-----0-0-0-0-0-0-|------0-0-0----|-0-1-0-4-3-1--|


  Gtr I
   PM----------------------------------------------
   S  S  S  S  S  S  S  S  S  S  S  S  S  S  S  S
|-------------------------------------------------|
|-------------------------------------------------|
|-------------------------------------------------|
|-------------------------------------------------|
|--7--7--7--7-10-10-10-10--9--9--9--9--7--7--7--7-|
|-------------------------------------------------|
|
| Gtr II
|  PM----------------------------------------------
|  S  S  S  S  S  S  S  S  S  S  S  S  S  S  S  S
|-------------------------------------------------|
|-------------------------------------------------|
|-------------------------------------------------|
|-------------------------------------------------|
|-10-10-10-10-14-14-14-14-12-12-12-12-10-10-10-10-|
|-------------------------------------------------|


 ----------------------------------------------|
   S  S  S  S  S  S  S  S  S  S  S  S  S  S  S  S
|-------------------------------------------------|
|-------------------------------------------------|
|-------------------------------------------------|
|--------------------------9--9--9--9-------------|
|-10-10-10-10--9--9--9--9--------------9--9--9--9-|
|-------------------------------------------------|
|
|----------------------------------------------|
|  S  S  S  S  S  S  S  S  S  S  S  S  S  S  S  S
|-------------------------------------------------|
|-------------------------------------------------|
|-------------------------------------------------|
|-------------------------13-13-13-13-------------|
|-14-14-14-14-12-12-12-12-------------12-12-12-12-|
|-------------------------------------------------|


          PM----------|       PM--------|        PM--|      PM--------|
                                                            |-3-| |-3-|
  E E E E E E E E   E E  E  E S S E S S E   H    S S E Q    Q Q Q Q Q Q
|-----------------|-----------------------|---------------|--------------|
|-----------------|-----------------------|---------------|--------------|
|-4S5S4S5---------|------8S=9-------------|-3----------3--|--------------|
|-----------------|-----------------------|---------------|--------------|
|-2S3S2S3---------|------6S=7-------------|-1----------1--|---3---6-5-3--|
|---------0-0-0-0-|-0-0-------0-0-0-0-0-0-|------0-0-0----|-0-1-0-4-3-1--|
|
|         PM----------|       PM--------|        PM--|      PM--------|
|                                                           |-3-| |-3-|
| E E E E E E E E   E E  E  E S S E S S E   H    S S E Q    Q Q Q Q Q Q
|-----------------|-----------------------|---------------|--------------|
|-----------------|-----------------------|---------------|--------------|
|-8S9S8S9---------|-----11S12-------------|-8----------8--|--------------|
|-----------------|-----------------------|---------------|--------------|
|-6S7S6S7---------|------9S10-------------|-6----------6--|---3---6-5-3--|
|---------0-0-0-0-|-0-0-------0-0-0-0-0-0-|------0-0-0----|-0-1-0-4-3-1--|


          PM----------|       PM--------|        PM--|      PM--|
                                                            |-3-|
  E E E E E E E E   E E  E  E S S E S S E   H    S S E Q    Q Q Q H
|-----------------|-----------------------|---------------|-------------|
|-----------------|-----------------------|---------------|-------------|
|-4S5S4S5---------|------8S=9-------------|-3----------3--|-------------|
|-----------------|-----------------------|---------------|-------------|
|-2S3S2S3---------|------6S=7-------------|-1----------1--|---3---7\----|
|---------0-0-0-0-|-0-0-------0-0-0-0-0-0-|------0-0-0----|-0-1-0-7\----|
|
|         PM----------|       PM--------|        PM--|      PM--|
|                                                           |-3-|
| E E E E E E E E   E E  E  E S S E S S E   H    S S E Q    Q Q Q H
|-----------------|-----------------------|---------------|-------------|
|-----------------|-----------------------|---------------|-------------|
|-8S9S8S9---------|-----11S12-------------|-8----------8--|-------------|
|-----------------|-----------------------|---------------|-------------|
|-6S7S6S7---------|------9S10-------------|-6----------6--|---3---7\----|
|---------0-0-0-0-|-0-0-------0-0-0-0-0-0-|------0-0-0----|-0-1-0-7\----|


  Gtrs I, II
          PM----------|     PM--------|        PM--|      PM--------|
                                                          |-3-| |-3-|
  E E E E E E E E   E E E E S S E S S E   H    S S E Q    Q Q Q Q Q Q
|-----------------|---------------------|---------------|--------------|
|-----------------|---------------------|---------------|--------------|
|-----------------|---------------------|---------------|--------------|
|-4S5S4S5---------|-----8S9-------------|-3----------3--|--------------|
|-2S3S2S3---------|-----6S7-------------|-1----------1--|---3---6-5-3--|
|-2S3S2S3S0-0-0-0-|-0-0-6S7-0-0-0-0-0-0-|-1----0-0-0-1--|-0-1-0-4-3-1--|


          PM----------|     PM--------|        PM--|      PM--------|
                                                          |-3-| |-3-|
  E E E E E E E E   E E E E S S E S S E   H    S S E Q    Q Q Q Q Q Q
|-----------------|---------------------|---------------|--------------|
|-----------------|---------------------|---------------|--------------|
|-----------------|---------------------|---------------|--------------|
|-4S5S4S5---------|-----8S9-------------|-3----------3--|--------------|
|-2S3S2S3---------|-----6S7-------------|-1----------1--|---3---6-5-3--|
|-2S3S2S3S0-0-0-0-|-0-0-6S7-0-0-0-0-0-0-|-1----0-0-0-1--|-0-1-0-4-3-1--|


   Chorus
    Fast Metal Q=212
   4/4
    Gtrs I, II
    PM----------------------------------------------------------------------|
    S S S S  S  S  S  S S S S S S S S S    S  S  S  S S S S S S S S S S S S S
||--------------------------------------|-------------------------------------|
||o-------------------------------------|-------------------------------------|
||--------------------------------------|-------------------------------------|
||--------------------------------------|---------------------9-9-9-9---------|
||o-7-7-7-7-10-10-10-10-9-9-9-9-7-7-7-7-|-10-10-10-10-9-9-9-9---------9-9-9-9-|
||--------------------------------------|-------------------------------------|


  1.
  PM-----------------------------------
  S S S S  S  S  S  S S S S S S S S S
|-------------------------------------|
|-------------------------------------|
|-------------------------------------|
|-------------------------------------|
|-6-6-6-6-10-10-10-10-9-9-9-9-6-6-6-6-|
|-------------------------------------|


 ---------------------------------------|
   S  S  S  S S S S S  S  S  S  S S S S S
|------------------------------------------||
|-----------------------------------------o||
|------------------------------------------||
|---------------------10-10-10-10----------||
|-10-10-10-10-9-9-9-9-------------9-9-9-9-o||
|------------------------------------------||


  2.
  PM----------------------------|
  S S S S S S S S S S S S S S S S   S S S S  S  S  S  S S S S S S S S S
|---------------------------------|-------------------------------------||
|---------------------------------|-------------------------------------||
|---------------------------------|-------------------------------------||
|---------------------------------|-------------------------------------||
|-7-7-7-7-6-6-6-6-----------------|---------10-10-10-10-6-6-6-6-9-9-9-9-||
|-----------------8-8-8-8-6-6-6-6-|-7-7-7-7-----------------------------||


    Gtr I
     PM----------------------------------------------
     S  S  S  S  S  S  S  S  S  S  S  S  S  S  S  S
||--------------------------------------------------|
||o-------------------------------------------------|
||--------------------------------------------------|
||--------------------------------------------------|
||o--7--7--7--7-10-10-10-10--9--9--9--9--7--7--7--7-|
||--------------------------------------------------|
|
|   Gtr II
|    PM----------------------------------------------
|    S  S  S  S  S  S  S  S  S  S  S  S  S  S  S  S
||--------------------------------------------------|
||o-------------------------------------------------|
||--------------------------------------------------|
||--------------------------------------------------|
||o-10-10-10-10-14-14-14-14-12-12-12-12-10-10-10-10-|
||--------------------------------------------------|


 ----------------------------------------------|
   S  S  S  S  S  S  S  S  S  S  S  S  S  S  S  S
|------------------------------------------------|
|------------------------------------------------|
|------------------------------------------------|
|--------------------------9--9--9--9------------|
|-10-10-10-10--9--9--9--9--------------9--9--9--9|
|------------------------------------------------|
|
|----------------------------------------------|
|  S  S  S  S  S  S  S  S  S  S  S  S  S  S  S  S
|------------------------------------------------|
|------------------------------------------------|
|------------------------------------------------|
|-------------------------13-13-13-13------------|
|-14-14-14-14-12-12-12-12-------------12-12-12-12|
|------------------------------------------------|


  1.
  PM---------------------------------------
  S S S S  S  S  S  S  S  S  S  S S S S S
|-----------------------------------------|
|-----------------------------------------|
|-----------------------------------------|
|-----------------------------------------|
|-6-6-6-6-10-10-10-10--9--9--9--9-6-6-6-6-|
|-----------------------------------------|
|
| S S S S  S  S  S  S  S  S  S  S S S S S
|-----------------------------------------|
|-----------------------------------------|
|-----------------------------------------|
|-----------------------------------------|
|-9-9-9-9-14-14-14-14-12-12-12-12-9-9-9-9-|
|-----------------------------------------|


 ---------------------------------------|
   S  S  S  S S S S S  S  S  S  S S S S S
|------------------------------------------||
|-----------------------------------------o||
|------------------------------------------||
|---------------------10-10-10-10----------||
|-10-10-10-10-9-9-9-9-------------9-9-9-9-o||
|------------------------------------------||
|
|  S  S  S  S S S S S  S  S  S  S S S S S
|------------------------------------------||
|-----------------------------------------o||
|------------------------------------------||
|------------------------------------------||
|-10-10-10-10-9-9-9-9--7--7--7--7-6-6-6-6-o||
|------------------------------------------||


  2.
   PM-------------------------------|
   S  S  S  S S S S S S S S S S S S S
|-------------------------------------|
|-------------------------------------|
|-------------------------------------|
|-------------------------------------|
|--7--7--7--7-6-6-6-6-----------------|
|---------------------8-8-8-8-6-6-6-6-|
|
|  S  S  S  S S S S S S S S S S S S S
|-------------------------------------|
|-------------------------------------|
|-------------------------------------|
|-------------------------------------|
|-10-10-10-10-9-9-9-9-7-7-7-7-9-9-9-9-|
|-------------------------------------|


   S  S  S  S  S  S  S  S  S  S  S  S  S  S  S  S
|-------------------------------------------------||
|-------------------------------------------------||
|-------------------------------------------------||
|-------------------------------------------------||
|-------------10-10-10-10--6--6--6--6--9--9--9--9-||
|--7--7--7--7-------------------------------------||
|
|  S  S  S  S  S  S  S  S  S  S  S  S  S  S  S  S
|-------------------------------------------------||
|-------------------------------------------------||
|-------------------------------------------------||
|-------------------------------------------------||
|-10-10-10-10-14-14-14-14-15-15-15-15-12-12-12-12-||
|-------------------------------------------------||


 Bridge
  Half Time Q=106
  Gtr I
        PM--|          PM--|       PM        PM|   PM     PM-|   PM|   PM|
  E E E E E E Q     E  E E E E E E E   E E E E E E E E    E  E E E E E E E
|----------------|-------------------|-----------------|-------------------|
|----------------|-------------------|-----------------|-------------------|
|-4S5S4-------8--|--9--------4S5S4---|-3-5-3-----3---3-|-------3-----3-----|
|----------------|-------------------|-----------------|-------------------|
|-2S3S2-------6--|--7--------2S3S2---|-1-3-1-----1---1-|-------1-----1-----|
|-------0-0-0----|-----0-0-0-------0-|-------0-0---0---|--0--0---0-0---0-0-|
|
| Gtr II
|       PM--|          PM--|       PM        PM|   PM     PM-|   PM|   PM|
| E E E E E E Q     E  E E E E E E E   E E E E E E E E    E  E E E E E E E
|----------------|-------------------|-----------------|-------------------|
|-------------7--|--8----------------|-----------------|-------------------|
|-4S5S4----------|-----------4S5S4---|-3-5-3-----3---3-|-------3-----3-----|
|-------------4--|--5----------------|-----------------|-------------------|
|-2S3S2----------|-----------2S3S2---|-1-3-1-----1---1-|-------1-----1-----|
|-------0-0-0----|-----0-0-0-------0-|-------0-0---0---|--0--0---0-0---0-0-|
|
| Gtr III
| W                +W                  W                 +W
|-2--------------|-(2)---------------|-1---------------|-(1)---------------|
|-5--------------|-(5)---------------|-4---------------|-(4)---------------|
|-4--------------|-(4)---------------|-3---------------|-(3)---------------|
|-2--------------|-(2)---------------|-1---------------|-(1)---------------|
|-2--------------|-(2)---------------|-1---------------|-(1)---------------|
|----------------|-------------------|-----------------|-------------------|


  Gtr I
        PM--|          PM--|       PM        PM|   PM     PM-|   PM|   PM|
  E E E E E E Q     E  E E E E E E E   E E E E E E E E    E  E E E E E E E
|----------------|-------------------|-----------------|-------------------|
|----------------|-------------------|-----------------|-------------------|
|-4S5S4-------8--|--9--------4S5S4---|-3-5-3-----3---3-|-------3-----3-----|
|----------------|-------------------|-----------------|-------------------|
|-2S3S2-------6--|--7--------2S3S2---|-1-3-1-----1---1-|-------1-----1-----|
|-------0-0-0----|-----0-0-0-------0-|-------0-0---0---|--0--0---0-0---0-0-|
|
| Gtr II
|       PM--|          PM--|       PM        PM|   PM     PM-|   PM|   PM|
| E E E E E E Q     E  E E E E E E E   E E E E E E E E    E  E E E E E E E
|----------------|-------------------|-----------------|-------------------|
|-------------7--|--8----------------|-----------------|-------------------|
|-4S5S4----------|-----------4S5S4---|-3-5-3-----3---3-|-------3-----3-----|
|-------------4--|--5----------------|-----------------|-------------------|
|-2S3S2----------|-----------2S3S2---|-1-3-1-----1---1-|-------1-----1-----|
|-------0-0-0----|-----0-0-0-------0-|-------0-0---0---|--0--0---0-0---0-0-|
|
| W                +W                  W                 +W
|-2--------------|-(2)---------------|-1---------------|-(1)---------------|
|-5--------------|-(5)---------------|-4---------------|-(4)---------------|
|-4--------------|-(4)---------------|-3---------------|-(3)---------------|
|-2--------------|-(2)---------------|-1---------------|-(1)---------------|
|-2--------------|-(2)---------------|-1---------------|-(1)---------------|
|----------------|-------------------|-----------------|-------------------|


  Gtrs I, II
                   PM|
   H.              S S E    H.              S S E
|------------------------|------------------------|
|------------------------|------------------------|
|------------------------|------------------------|
|--2---------------------|--2---------------------|
|--2---------------------|--2---------------------|
|--0---------------0-0---|--0---------------0-0---|
|
| Gtr IV
|  E  E  E E  E E  E   E    E  E  E E  E E  E   E
|-12---------12----------|-12---------12----------|
|-----8----8----8------8-|-----8----8----8------8-|
|-------11--------11-----|-------11--------11-----|
|------------------------|------------------------|
|------------------------|------------------------|
|------------------------|------------------------|


                         PM|
   W                     S S E  Q    E E  Q
|---------------------|-------------------------|
|---------------------|-------------------------|
|---------------------|-------------------------|
|--1------------------|-------------------------|
|--1------------------|----------------2S=7\----|
|---------------------|--0-0-----------2S=7\----|
|
|  E E  E E  E E  E E    E   E  E E  E E  E  E
|-11--------11--------|-11----------11----------|
|----8----8----8----8-|------8----8----8-----8--|
|------11--------11---|--------11--------11-----|
|---------------------|-------------------------|
|---------------------|-------------------------|
|---------------------|-------------------------|


  Gtrs I, II
                   PM|
   H.              S S E    H.              S S E
|------------------------|------------------------|
|------------------------|------------------------|
|------------------------|------------------------|
|--2---------------------|--2---------------------|
|--2---------------------|--2---------------------|
|--0---------------0-0---|--0---------------0-0---|
|
| Gtr IV
|  E  E  E E  E E  E   E    E  E  E E  E E  E   E
|-12---------12----------|-12---------12----------|
|-----8----8----8------8-|-----8----8----8------8-|
|-------11--------11-----|-------11--------11-----|
|------------------------|------------------------|
|------------------------|------------------------|
|------------------------|------------------------|


   H.              S S E    Q    Q    Q    Q
|------------------------|----------------------|
|------------------------|----------------------|
|------------------------|----------------------|
|--1---------------------|----------------------|
|--1---------------------|-------3----6----5----|
|------------------0-0---|-------1----4----3----|
|
|  E  E  E E  E E  E   E    E E  E E  E E  E E
|-11---------11----------|-11--------11---------|
|-----8----8----8------8-|----8----8----8----8--|
|-------11--------11-----|------11--------11----|
|------------------------|----------------------|
|------------------------|----------------------|
|------------------------|----------------------|


  Gtr I
   PM|                         PM-|
   S S E  H.                   S  S E  H.
|--------------------------|--------------------------|
|--------------------------|--------------------------|
|--------------------------|--------------------------|
|---------2----------------|-----------1--------------|
|---------2----------------|-----------1--------------|
|--0-0----0----------------|---0--0-------------------|
|
| Gtr II
|  Q      E  E +E  Q     E    +E    E +H.
|--------------------------|--------------------------|
|--5------8--7-(7)-5----12-|-(12)S==7-(7)-------------|
|--------------------------|--------------------------|
|--2------5--4-(4)-2-----9-|--(9)S==4-(4)-------------|
|--------------------------|--------------------------|
|--------------------------|--------------------------|
|
| Gtr IV
|  E   E  E  E  E  E  E  E     E    E  E  E  E E  E E
|-12-----------12----------|--12------------12--------|
|------8-----8-----8-----8-|--------8-----8----8----8-|
|--------11----------11----|----------11---------11---|
|--------------------------|--------------------------|
|--------------------------|--------------------------|
|--------------------------|--------------------------|


   PM|                         PM-|
   S S E  H.                   S  S E  H.
|--------------------------|--------------------------|
|--------------------------|--------------------------|
|--------------------------|--------------------------|
|---------2----------------|-----------1--------------|
|---------2----------------|-----------1--------------|
|--0-0----0----------------|---0--0-------------------|
|
|  Q      E  E +E  Q     E    +E    E +H.
|--------------------------|--------------------------|
|--5------8--7-(7)-5----12-|-(12)S==7-(7)-------------|
|--------------------------|--------------------------|
|--2------5--4-(4)-2-----9-|--(9)S==4-(4)-------------|
|--------------------------|--------------------------|
|--------------------------|--------------------------|
|
|  E   E  E  E  E  E  E  E     E    E  E  E  E E  E E
|-11-----------11----------|--11------------11--------|
|------8-----8-----8-----8-|--------8-----8----8----8-|
|--------11----------11----|----------11---------11---|
|--------------------------|--------------------------|
|--------------------------|--------------------------|
|--------------------------|--------------------------|

With Clean Part
  Gtr I
  PM|                         PM-|
  S S E  H.                   S  S E  H.
|-------------------------|-------------------|
|-------------------------|-------------------|
|-------------------------|-------------------|
|--------2----------------|-----------1-------|
|--------2----------------|-----------1-------|
|-0-0----0----------------|---0--0------------|
|
| Gtr II
| Q      E   E  +E  Q   E    +E    E +H.
|-------------------------|-------------------|
|-5------8---7--(7)-5--12-|-(12)S==7-(7)------|
|-------------------------|-------------------|
|-2------5---4--(4)-2---9-|--(9)S==4-(4)------|
|-------------------------|-------------------|
|-------------------------|-------------------|
|
| Gtr III
| Q      E   E  +E  Q   E    +E    E +H.
|-------------------------|-------------------|
|-8-----12--10-(10)-8---7-|--(7)S==4-(4)------|
|-------------------------|-------------------|
|-5------9---7--(7)-5---4-|--(4)S==1-(1)------|
|-------------------------|-------------------|
|-------------------------|-------------------|


                                                2/4
  PM|                         PM-|               PM|   PM|
  S S E  H.                   S  S E  H.         S S E S S E
|-------------------------|-------------------||-------------||
|-------------------------|-------------------||-------------||
|-------------------------|-------------------||-------------||
|--------2----------------|-----------1-------||-2-2---2-2---||
|--------2----------------|-----------1-------||-2-2---2-2---||
|-0-0----0----------------|---0--0------------||-------------||
|
| Q      E   E  +E  Q   E    +E    E +H.
|-------------------------|-------------------||-------------||
|-5------8---7--(7)-5--12-|-(12)S==7-(7)------||-------------||
|-------------------------|-------------------||-------------||
|-2------5---4--(4)-2---9-|--(9)S==4-(4)------||-------------||
|-------------------------|-------------------||-------------||
|-------------------------|-------------------||-------------||
|
| Q      E   E  +E  Q   E    +E    E +H.
|-------------------------|-------------------||-------------||
|-8-----12--10-(10)-8---7-|--(7)S==4-(4)------||-------------||
|-------------------------|-------------------||-------------||
|-5------9---7--(7)-5---4-|--(4)S==1-(1)------||-------------||
|-------------------------|-------------------||-------------||
|-------------------------|-------------------||-------------||


 Verse
  A Tempo Q=212
 4/4
  Gtrs I, II
          PM----------|     PM--------|        PM--|      PM--------|
                                                          |-3-| |-3-|
  E E E E E E E E   E E E E S S E S S E   H    S S E Q    Q Q Q Q Q Q
|-----------------|---------------------|---------------|-------------|
|-----------------|---------------------|---------------|-------------|
|-4S5S4S5---------|-----8S9-------------|-3----------3--|-------------|
|-----------------|---------------------|---------------|-------------|
|-2S3S2S3---------|-----6S7-------------|-1----------1--|---3---6-5-3-|
|---------0-0-0-0-|-0-0-----0-0-0-0-0-0-|------0-0-0----|-0-1-0-4-3-1-|


          PM----------|     PM--------|        PM--|      PM--------|
                                                          |-3-| |-3-|
  E E E E E E E E   E E E E S S E S S E   H    S S E Q    Q Q Q Q Q Q
|-----------------|---------------------|---------------|--------------|
|-----------------|---------------------|---------------|--------------|
|-4S5S4S5---------|-----8S9-------------|-3----------3--|--------------|
|-----------------|---------------------|---------------|--------------|
|-2S3S2S3---------|-----6S7-------------|-1----------1--|---3---6-5-3--|
|---------0-0-0-0-|-0-0-----0-0-0-0-0-0-|------0-0-0----|-0-1-0-4-3-1--|


          PM----------|     PM--------|        PM--|      PM--------|
                                                          |-3-| |-3-|
  E E E E E E E E   E E E E S S E S S E   H    S S E Q    Q Q Q Q Q Q
|-----------------|---------------------|---------------|--------------|
|-----------------|---------------------|---------------|--------------|
|-4S5S4S5---------|-----8S9-------------|-3----------3--|--------------|
|-----------------|---------------------|---------------|--------------|
|-2S3S2S3---------|-----6S7-------------|-1----------1--|---3---6-5-3--|
|---------0-0-0-0-|-0-0-----0-0-0-0-0-0-|------0-0-0----|-0-1-0-4-3-1--|


          PM----------|     PM--------|        PM--|      PM--------|
                                                          |-3-| |-3-|
  E E E E E E E E   E E E E S S E S S E   H    S S E Q    Q Q Q Q Q Q
|-----------------|---------------------|---------------|--------------|
|-----------------|---------------------|---------------|--------------|
|-4S5S4S5---------|-----8S9-------------|-3----------3--|--------------|
|-----------------|---------------------|---------------|--------------|
|-2S3S2S3---------|-----6S7-------------|-1----------1--|---3---6-5-3--|
|---------0-0-0-0-|-0-0-----0-0-0-0-0-0-|------0-0-0----|-0-1-0-4-3-1--|


 Solo
                                     PM---------------------------|
                                     |-----3-----|     |-----3-----|
  W                                  Q     Q     Q     Q     Q     Q
|---------------------------------|-------------------------------------|
|---------------------------------|-------------------------------------|
|---------------------------------|-------------------------------------|
|---------------------------------|--------------------------------5----|
|-3-------------------------------|--------3-----------6-----5-----3----|
|-1-------------------------------|--0-----1-----0-----4-----3----------|
|
| Gtr III
| |--3--|  |-3--|  |-3--| |--3--|    |--3--|  |--3--|  |--3--|  |--3--|
| E  E  E  E  E E  E E  E E  E  E    E  E  E  E  E  E  E  E  E  E  E  E
|---------------8-13p8----8-13s17-|-13----13-17s20p17-19p17-------------|
|------------10--------10---------|-------------------------20-18-17s16-|
|---------10----------------------|----17-------------------------------|
|------10-------------------------|-------------------------------------|
|-8h12----------------------------|-------------------------------------|
|---------------------------------|-------------------------------------|


   W                                 E   E   Q        E    E     Q
|----------------------------------|---------------------------------------|
|----------------------------------|---------------------------------------|
|----------------------------------|---------------------------------------|
|--4-------------------------------|-4---4------------4----4---------------|
|--2-------------------------------|-2---2------------2----2---------------|
|----------------------------------|-2---2------------2----2---------------|
|
|                                                             T
|  |--3--|  |--3--|  |--3--| |-3-|   |--3--| |--3--|  |---3---|  |--3--|
|  E  E  E  E  E  E  E  E  E E E E   E E   E E  E  E  E  E    E  E  E  E
|-19p14----14p11-------------------|-----------------11h14---19-14p11------|
|-------16-------12----------------|--------------12------------------12s==|
|-------------------11-------------|---------8h11--------------------------|
|----------------------13----------|-------9-------------------------------|
|-------------------------14-9s6---|-6h9-----------------------------------|
|--------------------------------7-|---------------------------------------|


   Chorus
   4/4
    Gtrs I, II
     PM--------------------------------------
     S S   S  S  S  S  S  S S S S S S S S S
||------------------------------------------|
||o-----------------------------------------|
||------------------------------------------|
||------------------------------------------|
||o--7-7---7--7-10-10-10-10-9-9-9-9-7-7-7-7-|
||------------------------------------------|
|
|   Gtr III
|          ~~~~~~~~~~~~~~~~~~~~~~~~~~~~~~~~~~
|    Q    +H.
||------------------------------------------|
||o-17---(17)-------------------------------|
||------------------------------------------|
||------------------------------------------|
||o-----------------------------------------|
||------------------------------------------|


 -------------------------------------|
    S   S  S  S S S S S S S S S S S S S
|---------------------------------------|
|---------------------------------------|
|---------------------------------------|
|-----------------------9-9-9-9---------|
|--10--10-10-10-9-9-9-9---------9-9-9-9-|
|---------------------------------------|
|
|~~~~~~
|  +W
|---------------------------------------|
|-(17)----------------------------------|
|---------------------------------------|
|---------------------------------------|
|---------------------------------------|
|---------------------------------------|


  1.
  PM-----------------------------------
  S S S S  S  S  S  S S S S S S S S S
|-------------------------------------|
|-------------------------------------|
|-------------------------------------|
|-------------------------------------|
|-6-6-6-6-10-10-10-10-9-9-9-9-6-6-6-6-|
|-------------------------------------|


 ---------------------------------------|
   S  S  S  S S S S S  S  S  S  S S S S S
|------------------------------------------||
|-----------------------------------------o||
|------------------------------------------||
|---------------------10-10-10-10----------||
|-10-10-10-10-9-9-9-9-------------9-9-9-9-o||
|------------------------------------------||


  2.
  PM----------------------------|
  S S S S S S S S S S S S S S S S   S S S S  S  S  S  S S S S S S S S S
|---------------------------------|-------------------------------------||
|---------------------------------|-------------------------------------||
|---------------------------------|-------------------------------------||
|---------------------------------|-------------------------------------||
|-7-7-7-7-6-6-6-6-----------------|---------10-10-10-10-6-6-6-6-9-9-9-9-||
|-----------------8-8-8-8-6-6-6-6-|-7-7-7-7-----------------------------||


    Gtr I
     PM----------------------------------------------
     S  S  S  S  S  S  S  S  S  S  S  S  S  S  S  S
||--------------------------------------------------|
||o-------------------------------------------------|
||--------------------------------------------------|
||--------------------------------------------------|
||o--7--7--7--7-10-10-10-10--9--9--9--9--7--7--7--7-|
||--------------------------------------------------|
|
|   Gtr II
|    PM----------------------------------------------
|    S  S  S  S  S  S  S  S  S  S  S  S  S  S  S  S
||--------------------------------------------------|
||o-------------------------------------------------|
||--------------------------------------------------|
||--------------------------------------------------|
||o-10-10-10-10-14-14-14-14-12-12-12-12-10-10-10-10-|
||--------------------------------------------------|


 ----------------------------------------------|
   S  S  S  S  S  S  S  S  S  S  S  S  S  S  S  S
|--------------------------------------------------|
|--------------------------------------------------|
|--------------------------------------------------|
|--------------------------9--9--9--9--------------|
|-10-10-10-10--9--9--9--9--------------9--9--9--9--|
|--------------------------------------------------|
|
|----------------------------------------------|
|  S  S  S  S  S  S  S  S  S  S  S  S  S  S  S  S
|--------------------------------------------------|
|--------------------------------------------------|
|--------------------------------------------------|
|-------------------------13-13-13-13--------------|
|-14-14-14-14-12-12-12-12-------------12-12-12-12--|
|--------------------------------------------------|


  1.
  PM---------------------------------------
  S S S S  S  S  S  S  S  S  S  S S S S S
|-----------------------------------------|
|-----------------------------------------|
|-----------------------------------------|
|-----------------------------------------|
|-6-6-6-6-10-10-10-10--9--9--9--9-6-6-6-6-|
|-----------------------------------------|
|
| S S S S  S  S  S  S  S  S  S  S S S S S
|-----------------------------------------|
|-----------------------------------------|
|-----------------------------------------|
|-----------------------------------------|
|-9-9-9-9-14-14-14-14-12-12-12-12-9-9-9-9-|
|-----------------------------------------|


 ---------------------------------------|
   S  S  S  S S S S S  S  S  S  S S S S S
|------------------------------------------||
|-----------------------------------------o||
|------------------------------------------||
|---------------------10-10-10-10----------||
|-10-10-10-10-9-9-9-9-------------9-9-9-9-o||
|------------------------------------------||
|
|  S  S  S  S S S S S  S  S  S  S S S S S
|------------------------------------------||
|-----------------------------------------o||
|------------------------------------------||
|------------------------------------------||
|-10-10-10-10-9-9-9-9--7--7--7--7-6-6-6-6-o||
|------------------------------------------||


  2.
   PM-------------------------------|
   S  S  S  S S S S S S S S S S S S S
|-------------------------------------|
|-------------------------------------|
|-------------------------------------|
|-------------------------------------|
|--7--7--7--7-6-6-6-6-----------------|
|---------------------8-8-8-8-6-6-6-6-|
|
|  S  S  S  S S S S S S S S S S S S S
|-------------------------------------|
|-------------------------------------|
|-------------------------------------|
|-------------------------------------|
|-10-10-10-10-9-9-9-9-7-7-7-7-9-9-9-9-|
|-------------------------------------|


   S  S  S  S  S  S  S  S  S  S  S  S  S  S  S  S
|-------------------------------------------------||
|-------------------------------------------------||
|-------------------------------------------------||
|-------------------------------------------------||
|-------------10-10-10-10--6--6--6--6--9--9--9--9-||
|--7--7--7--7-------------------------------------||
|
|  S  S  S  S  S  S  S  S  S  S  S  S  S  S  S  S
|-------------------------------------------------||
|-------------------------------------------------||
|-------------------------------------------------||
|-------------------------------------------------||
|-10-10-10-10-14-14-14-14-15-15-15-15-12-12-12-12-||
|-------------------------------------------------||


 Interlude
  Half Time Q=106
  Gtr I
                PM
  H.            E  E    +W
|--------------------|-------------------|
|--------------------|-------------------|
|--------------------|-------------------|
|------------------4-|--(4)--------------|
|-2----------------2-|--(2)--------------|
|-0-------------0----|-------------------|
|
| Gtr II
| Q   E E +E  Q    E    +E  E +H     E E
|--------------------|-------------------|
|-5---8-7-(7)-5---12-|-(12)-7-(7)----7-8-|
|--------------------|-------------------|
|-2---5-4-(4)-2----9-|--(9)-4-(4)----4-5-|
|--------------------|-------------------|
|--------------------|-------------------|


                 PM           PM
   H.            E  E   +Q    E E +H
|---------------------|------------------|
|---------------------|------------------|
|---------------------|------------------|
|--2------------------|---------4-(4)----|
|--0----------------3-|-(3)-----2-(2)----|
|----------------0--1-|-(1)---0-2-(2)----|
|
|  H      +E   Q    E    E  Q   E  H
|---------------------|------------------|
|-10-----(10)-12---13-|-12---------------|
|---------------------|-----9---5--4-----|
|--7------(7)--9---10-|--9---------------|
|---------------------|-----7---3--2-----|
|---------------------|------------------|


                                  PM
  H.                              E    E
|-------------------------------------------|
|-------------------------------------------|
|-------------------------------------------|
|--------------------------------------4----|
|-2------------------------------------2----|
|-0-------------------------------0---------|
|
| Q          E    E    +E     Q        E
|-------------------------------------------|
|-5----------8----7----(7)----5-------12----|
|-------------------------------------------|
|-2----------5----4----(4)----2--------9----|
|-------------------------------------------|
|-------------------------------------------|
|
| Gtr III
| s   S S  S S  S S  S  S   S S S S S  S  S
|-------------------------------------------|
|-------------------------------------------|
|-------------------------------------------|
|---------------------------------9---------|
|-7--10-9-10-7-10-9-10--7--10-9-7---7--9-10-|
|-------------------------------------------|


   +W
|---------------------------------------------|
|---------------------------------------------|
|---------------------------------------------|
|--(4)----------------------------------------|
|--(2)----------------------------------------|
|---------------------------------------------|
|
|  +E     E    +H                    E   E
|---------------------------------------------|
|-(12)----7----(7)-------------------7---8----|
|---------------------------------------------|
|--(9)----4----(4)-------------------4---5----|
|---------------------------------------------|
|---------------------------------------------|
|
|   S   S S  S  S   S S  S S  S S S  S S S  S
|---------------------------------------------|
|---------------------------------------------|
|---------------------------------------------|
|-----------------------------------10--------|
|---6--10-9-10--6--10-9-10-6-10-9-6----6-9-10-|
|---------------------------------------------|


                                PM                   PM
   H.                           E    E     +Q        E   E   +H
|----------------------------------------|-------------------------------------|
|----------------------------------------|-------------------------------------|
|----------------------------------------|-------------------------------------|
|--2-------------------------------------|---------------4---(4)---------------|
|--0---------------------------------3---|-(3)-----------2---(2)---------------|
|-------------------------------0----1---|-(1)-------0---2---(2)---------------|
|
|  H                 +E     Q        E      E    Q       E    H
|----------------------------------------|-------------------------------------|
|-10----------------(10)---12-------13---|-12----------------------------------|
|----------------------------------------|-------9-------5----4----------------|
|--7-----------------(7)----9-------10---|--9----------------------------------|
|----------------------------------------|-------7-------3----2----------------|
|----------------------------------------|-------------------------------------|
|
|  PM------------------------------------------------------------------|
|  S  S S S S S S S   S  S  S S S S  S S    S  S S S S S S S  S  S S S S S S S
|----------------------------------------|-------------------------------------|
|----------------------------------------|-------------------------------------|
|-----5---5---5---5------5----5---5----5-|-----5---5---5---5-----5---5---4---4-|
|--7----9---7---5-----9-----5--------9---|-------9-------9---------9-------7---|
|-------------------------------9--------|--8--------8--------7--------6-------|
|----------------------------------------|-------------------------------------|

With Octaves
                                        PM
   H.                                   E     E
|--------------------------------------------------|
|--------------------------------------------------|
|--------------------------------------------------|
|---------------------------------------------4----|
|--2------------------------------------------2----|
|--0------------------------------------0----------|
|
|  PM-----------------------------------------------
|  S   S  S  S  S  S  S  S  S  S  S  S  S  S  S  S
|--------------------------------------------------|
|--------------------------------------------------|
|--------------------------------------------------|
|--------------------------------------14----------|
|-10--14-12-14-10-14-12-14-10-14-12-10----10-12-14-|
|--------------------------------------------------|
|
| Gtr III
|  PM-----------------------------------------------
|  S   S  S  S  S  S  S  S  S  S  S  S  S  S  S  S
|--------------------------------------------------|
|--------------------------------------------------|
|--------------------------------------------------|
|---------------------------------------9----------|
|--7--10--9-10--7-10--9-10--7-10--9--7-----7--9-10-|
|--------------------------------------------------|


  +W
|----------------------------------------------|
|----------------------------------------------|
|----------------------------------------------|
|-(4)------------------------------------------|
|-(2)------------------------------------------|
|----------------------------------------------|
|
|-------------------------------------------|
|  S   S  S  S S  S  S  S S  S  S S  S S  S  S
|----------------------------------------------|
|----------------------------------------------|
|----------------------------------------------|
|-----------------------------------13---------|
|--9--14-12-14-9-14-12-14-9-14-12-9----9-12-14-|
|----------------------------------------------|
|
|-------------------------------------------|
|  S   S  S  S S  S  S  S S  S  S S  S S  S  S
|----------------------------------------------|
|----------------------------------------------|
|----------------------------------------------|
|-----------------------------------10---------|
|--6--10--9-10-6-10--9-10-6-10--9-6----6--9-10-|
|----------------------------------------------|


                                PM
   H.                           E    E
|----------------------------------------|
|----------------------------------------|
|----------------------------------------|
|--2-------------------------------------|
|--0---------------------------------3---|
|-------------------------------0----1---|
|
|  PM-------------------------------------
|  S  S  S S  S S S S  S S S S  S S  S S
|----------------------------------------|
|----------------------------------------|
|-----9----9----9---9----9---9----9----9-|
|-10----12---10---9---12---9--------12---|
|------------------------------12--------|
|----------------------------------------|
|
|  PM-------------------------------------
|  S  S  S S  S S S S  S S S S  S S  S S
|----------------------------------------|
|----------------------------------------|
|-----5----5----5---5----5---5----5----5-|
|--7-----9----7---5----9---5---------9---|
|-------------------------------9--------|
|----------------------------------------|


              PM
  +Q          E    E   +H
|--------------------------------------------|
|--------------------------------------------|
|--------------------------------------------|
|------------------4---(4)-------------------|
|-(3)--------------2---(2)-------------------|
|-(1)---------0----2---(2)-------------------|
|
|-----------------------------------------|
|  S  S  S S  S S  S S  S  S  S S  S  S S  S
|--------------------------------------------|
|--------------------------------------------|
|-----9----9----9----9-----9----9------------|
|-------12--------12---------12------13---13-|
|-12---------12--------11---------12----9----|
|--------------------------------------------|
|
|--------------------|     PM--------|
|  S  S  S S  S S  S S  S  S  S S  S  S S  S
|--------------------------------------------|
|--------------------------------------------|
|-----5----5----5----5-----5----5-----4----4-|
|--------9---------9----------9---------7----|
|--8----------8---------7----------6---------|
|--------------------------------------------|


    Gtr IV
                                                             |-3--|
    E E E  Q  Q  E   +E  E H.         E E E E +E   E E  E    Q  Q Q E E E E
||------7--------7-|-(7)-----------|------8-7-(7)----0----|------------------||
||o-8-----10--8----|-------7-------|-10-----------10------|---------7-----7-o||
||-----------------|-----4---------|----9---0-(0)---------|-10----------4----||
||----9------------|---------------|-------------------10-|----10S7---7------||
||o--------9--7--6-|-(6)-----------|--0--------------9----|--8------6-------o||
||--0--------------|---------------|----------------------|------------------||


    E E E  Q     Q  E    +E  E  H.
||------7-----------7-|--(7)--------------|
||o-8-----10-----8----|---------7---------|
||--------------------|------4------------|
||----9---------------|-------------------|
||o--------9-----7--6-|--(6)--------------|
||--0-----------------|-------------------|
|
|   Gtr I
|   Q E E +E  Q  E       +E  E +H     E E
||--------------------|-------------------|
||o-5-8-7-(7)-5-12----|-(12)S7-(7)----7-8-|
||--------------------|-------------------|
||--2-5-4-(4)-2--9----|--(9)S4-(4)----4-5-|
||o-------------------|-------------------|
||--------------------|-------------------|


                           |-3--|
   E E E E  +E   E E  E    Q  Q Q E E E E
|------8-7--(7)----0----|------------------||
|-10------------10------|---------7-----7-o||
|----9---0--(0)---------|-10----------4----||
|--------------------10-|----10S7---7------||
|--0---------------9----|--8------6-------o||
|-----------------------|------------------||
|
|  H        +E   Q    E    E  Q   E H
|-----------------------|------------------||
|-10-------(10)-12---13-|-12--------------o||
|-----------------------|-----9---5-4------||
|--7--------(7)--9---10-|--9---------------||
|-----------------------|-----7---3-2-----o||
|-----------------------|------------------||


  W          +W
|----------|--------|
|-8--------|-(8)----|
|----------|--------|
|----------|--------|
|----------|--------|
|-0--------|-(0)----|
|
| W          +W
|----------|--------|
|----------|--------|
|-9--------|-(9)----|
|----------|--------|
|-7--------|-(7)----|
|----------|--------|


Duration Legend
---------------
W - whole; H - half; Q - quarter; E - 8th; S - 16th; T - 32nd; X - 64th; a - acciaccatura
+ - note tied to previous; . - note dotted; .. - note double dotted
Uncapitalized letters represent notes that are staccato (1/2 duration)
Irregular groupings are notated above the duration line
Duration letters will always appear directly above the note/fret number it represents the
duration for.  Duration letters with no fret number below them represent rests.  Multi-
bar rests are notated in the form Wxn, where n is the number of bars to rest for.  Low
melody durations appear below the staff

Tablature Legend
----------------
 h   - hammer-on
 p   - pull-off
 b   - bend
 pb  - pre-bend
 r   - bend release (if no number after the r, then release immediately)
 /\  - slide into or out of (from/to "nowhere")
 s   - legato slide
 S   - shift slide
<n>  - natural harmonic
[n]  - artificial harmonic
n(n) - tapped harmonic
 ~   - vibrato
 tr  - trill
 T   - tap
 TP  - trem. picking
 PM  - palm muting
\n/  - tremolo bar dip; n = amount to dip
 \n  - tremolo bar down
 n/  - tremolo bar up
/n\  - tremolo bar inverted dip
 =   - hold bend; also acts as connecting device for hammers/pulls
 <>  - volume swell (louder/softer)
 x   - on rhythm slash represents muted slash
 o   - on rhythm slash represents single note slash

Misc Legend
-----------
 |  - bar
||  - double bar
||o - repeat start
o|| - repeat end
*|  - double bar (ending)
 :  - bar (freetime)
 $  - Segno
 &  - Coda
Tempo markers - <E/E./Q/Q./H/H.> = BPM(8/16=s8/s16), where s8 = swing 8ths, s16 = swing 16ths


***************************************************************************************
* Generated using Power Tab Editor by Brad Larsen - http://powertab.guitarnetwork.org *
***************************************************************************************
comments
We did not receive enough feedback on this tab! Please rate:
print report bad tab
1 2 3 4 5
2 comments total.
0 reply
Ibanezsweep45 wrote on August 1 2009, 04:54 pm

This is an export of my powertab file

0 reply
Ibanezsweep45 wrote on August 1 2009, 04:55 pm

which got rejected

I want to post or [tab]
guest
You may want to rate the tab now too:
select rating
Please do not post tabs as comments. Select "correction" instead!