Oops, an error
Loading. Please wait.

Wont Go Quietly Tab

ver1
ver1

Whole song

Interactive

More versions @911Tabs.com
5,371 views 34 this week
1 commentread comment
1 2 3 4 5
excellent!
x 2
Autoscroll
+/-
esc
set tempo
stop
Contributor
Hey! There's an official Ultimate Guitar app which is ideal
for learning songs when you're away from computer. Get the app
WARNING: You are trying to view
                                    content from Ultimate-Guitar.com
                                    in an unauthorized application,
                                    which is prohibited.

                                    Please use an official Ultimate
                                    Guitar Tabs application for iPhone,
                                    iPad or Android to access legitimate
                                    chords, guitar, bass, and drum tabs
                                    from Ultimate-Guitar.com database.

                                    Type "ultimate guitar tabs" in Apple
                                    App Store's or Android Market's
                                    search to find the application.
Song: Won't Go Quietly
Artist: All That Remains
Tabbed By: Swanny1989

(All guitars tuned to, from lowest to highest, Db Gb B E Ab Db)
(This is a really cool song on the album For We Are Many. This is how it is on the 
album. I have it all tabbed out in measures.
This song is entirely in 4 4s time, I think. The tempo is pretty much constant. Listen 
to the song for the exact tempo. Good Luck!)

Intro

 Gtr. 1*
|----------------------------------|--------------------------------------|
|----------------------------------|--------------------------------------|
|------------------2---------------|------------------2-------------------|
|------2-5-4-----5---5-4-----------|-----2-5-4-----5----5-4---------------|
|----2---------3--------7/9--7---5-|---2---------3----------7/-9----7---5-|
|--0---------0-------------0---0---|-0---------0-----------------0----0---|
|pm. .       . .           .   .     . .       . .               .    .
|Gtr. 2
|----------------------------------|--------------------------------------|
|----------------------------------|--------------------------------------|
|----------------------------------|--------------------------------------|
|----------------------------------|-----5-9-7-----9-10-9-7---------------|
|----------------------------------|---7---------7---------10/12---10---9-|
|----------------------------------|-0---------0-----------------0----0---|
 pm                                  . .       . .               .    .
*All guitars are distorted throughout this song.

                            Gtrs. 1 & 2
|--------------------------|---------------------------------|----------------------------|
|--------------------------|---------------------------------|----------------------------|
|--------------------------|-----------------2---------------|----------------------------|
|-----------------------7--|-----2-5-4-----5---5-4---------7-|------------------5---7---4-|
|--7\-------------------5--|---2---------3--------7/9--7-----|-7\---------------3---5---2-|
|-----0-0-0-0-0-0-0-0-0----|-0---------0-------------0---0---|----0-0-0-0-0-0-0---0---0---|
|pm   . . . . . . . . .      . .       . .           .   .        . . . . . . .   .   .
|--------------------------|
|--------------------------|
|--------------------------|
|-----------------------7--|
|-10\-------------------5--|
|-----0-0-0-0-0-0-0-0-0----|
 pm   . . . . . . . . .

 Gtr. 1
|---------------------------------------|--------------------------|
|---------------------------------------|--------------------------|
|-------------------2-------------------|--------------------------|
|------2-5-4-----5----5-4---------------|-----------------------7--|
|----2---------3----------7/-9----7---5-|--7\-------------------5--|
|--0---------0-----------------0----0---|-----0-0-0-0-0-0-0-0-0----|
|pm. .       . .               .    .         . . . . . . . . .
|Gtr. 2
|---------------------------------------|--------------------------|
|---------------------------------------|--------------------------|
|---------------------------------------|--------------------------|
|------5-9-7-----9-10-9-7---------------|-----------------------7--|
|----7---------7---------10/12---10---9-|-10\-------------------5--|
|--0---------0-----------------0----0---|-----0-0-0-0-0-0-0-0-0----|
 pm. .       . .               .    .         . . . . . . . . .

|----------------------------------------|----------------------------|
|----------------------------------------|----------------------------|
|-------------------2--------------------|----------------------------|
|------2-5-4-----5----5-4--------------7-|------------------5---7---4-|
|----2---------3----------7/-9----7------|-7\---------------3---5---2-|
|--0---------0-----------------0----0----|----0-0-0-0-0-0-0---0---0---|
|pm. .       . .               .    .         . . . . . . .   .   .
|----------------------------------------|----------------------------|
|----------------------------------------|----------------------------|
|----------------------------------------|----------------------------|
|------5-9-7-----9-10-9-7-------------12-|------------------5---7---4-|
|----7---------7---------10/12---10------|-7\---------------3---5---2-|
|--0---------0-----------------0----0----|----0-0-0-0-0-0-0---0---0---|
 pm. .       . .               .    .         . . . . . . .   .   .

Verse

|---------------------------------|---------------------------------|
|---------------------------------|---------------------------------|
|-------0---------------0---------|-------4---------------4---------|
|---4-------4---4---4-------4---4-|---5-------5---5---5-------5---5-|
|-----7-------5-------7-------5---|-----3-------3-------3-------3---|
|-0-------0-------0-------0-------|-0-------0-------0-------0-------|
|(Gtr. 2 riff A)                                         (End riff A)
|---------------------------------|---------------------------------|
|---------------------------------|---------------------------------|
|---------------------------------|---------------------------------|
|---------------------------------|---------------------------------|
|-2---------------2---------------|-3---------3333333---------333333|
|-0---------0000000---------000000|-3---------------3---------------|
(pm on both guitars throughout for the next 8 measures)

|---------------------------------|---------------------------------|
|---------------------------------|---------------------------------|
|-------0---------------0---------|-------4---------------4---------|
|---4-------4---4---4-------4---4-|---5-------5---5---5-------5---5-|
|-----7-------5-------7-------5---|-----3-------3-------3-------3---|
|-0-------0-------0-------0-------|-0-------0-------0-------0-------|
|
|---------------------------------|---------------------------------|
|---------------------------------|---------------------------------|
|---------------------------------|---------------------------------|
|---------------------------------|---------------------------------|
|-2---------------2---------------|-3---------3333333---------333333|
|-0---------0000000---------000000|-3---------------3---------------|

 Gtr. 1 w/ Gtr. 2 playing riff A
|--------------------------------------|---------------------------------|
|--------------------------------------|---------------------------------|
|--------11-----------------9----------|-------7---------------7---------|
|---9---------9----9---9--------9----9-|---9-------9---9---9-------9---9-|
|-----10--------12-------10-------12---|-----7-------7-------7-------7---|
|-0---------0--------0--------0--------|-0-------0-------0-------0-------|

 w/ riff A
|--------------------------------------|---------------------------------|
|--------------------------------------|---------------------------------|
|--------11-----------------9----------|-------7---------------7---------|
|---9---------9----9---9--------9----9-|---9-------9---9---9-------9---9-|
|-----10--------12-------10-------12---|-----7-------7-------7-------7---|
|-0---------0--------0--------0--------|-0-------0-------0-------0-------|

 Gtrs. 1 & 2
|----------------------------------|-------------------------|---------------------------------|
|----------------------------------|-------------------------|---------------------------------|
|------------------2---------------|-------------------------|-----------------2---------------|
|------2-5-4-----5---5-4-----------|----------------------7--|-----2-5-4-----5---5-4---------7-|
|----2---------3--------7/9--7---5-|-7\-------------------5--|---2---------3--------7/9--7-----|
|--0---------0-------------0---0---|----0-0-0-0-0-0-0-0-0----|-0---------0-------------0---0---|
 pm. .       . .           .   .        . . . . . . . . .      . .       . .           . 
  .

 Gtr. 1
|-----------------------------|--------------------------------------|--------------------------|
|-----------------------------|--------------------------------------|--------------------------|
|-----------------------------|------------------2-------------------|--------------------------|
|-------------------5---7---4-|-----2-5-4-----5----5-4---------------|-----------------------7--|
|--7\---------------3---5---2-|---2---------3----------7/-9----7---5-|--7\-------------------5--|
|-----0-0-0-0-0-0-0---0---0---|-0---------0-----------------0----0---|-----0-0-0-0-0-0-0-0-0----|
|pm   . . . . . . .   .   .     . .       . .               .    .         . . . . . . . ..
|Gtr. 2
|-----------------------------|--------------------------------------|--------------------------|
|-----------------------------|--------------------------------------|--------------------------|
|-----------------------------|--------------------------------------|--------------------------|
|-------------------5---7---4-|-----5-9-7-----9-10-9-7---------------|-----------------------7--|
|--7\---------------3---5---2-|---7---------7---------10/12---10---9-|-10\-------------------5--|
|-----0-0-0-0-0-0-0---0---0---|-0---------0-----------------0----0---|-----0-0-0-0-0-0-0-0-0----|
 pm   . . . . . . .   .   .     . .       . .               .    .         . . . . . . . ..

|----------------------------------------|---------------------------------|
|----------------------------------------|---------------------------------|
|-------------------2--------------------|---------------------------------|
|------2-5-4-----5----5-4--------------7-|-------------------4-4-4-4-4-4-4-|
|----2---------3----------7/-9----7------|--7\---------------2-2-2-2-2-2-2-|
|--0---------0-----------------0----0----|-----0-0-0-0-0-0-0---------------|
|pm. .       . .               .    .          . . . . . . .
|----------------------------------------|---------------------------------|
|----------------------------------------|---------------------------------|
|----------------------------------------|---------------------------------|
|------5-9-7-----9-10-9-7-------------12-|-------------------4-4-4-4-4-4-4-|
|----7---------7---------10/12---10------|-10\---------------2-2-2-2-2-2-2-|
|--0---------0-----------------0----0----|-----0-0-0-0-0-0-0---------------|
 pm. .       . .               .    .          . . . . . . .

Chorus

(Chorus fig)
 Gtr. 1
|-------------------------------------------|-------------------------------------------------|
|-5---5-5-5-5-------------------------------|-------------------------------------------------|
|-4---4-4-4-4-7---------7--7--7--7--7--7--7-|-------------------------------------------------|
|-2---2-2-2-2-5---------5--5--5--5--5--5--5-|--9--9--9--9--9--9--7--7--7--7--7--7--5--5--5--5-|
|-2---2-2-2-2-3---------3--3--3--3--3--3--3-|--5--5--5--5--5--5--5--5--5--5--5--5--5--5--5--5-|
|-0---0-0-0-0-3---------3--3--3--3--3--3--3-|--5--5--5--5--5--5--5--5--5--5--5--5--5--5--5--5-|
|Gtr. 2
|-------------------------------------------|-------------------------------------------------|
|-------------------------------------------|-------------------------------------------------|
|-9-9-9-9-9-9-12-12-12-12-12-12-12-12-12/14-|-14-14-14-14-14-14-14-14-14-14-14-14-16-16-16-16-|
|-x-x-x-x-x-x--x--x--x--x--x--x--x--x--x----|--x--x--x--x--x--x--x--x--x--x--x--x--x--x--x--x-|
|-7-7-7-7-7-7-10-10-10-10-10-10-10-10-10/12-|-12-12-12-12-12-12-12-12-12-12-12-12-14-14-14-14-|
|-------------------------------------------|-------------------------------------------------|

|-----------------------------------------------|-----------------------------------------------|
|-----------------------------------------------|-----------------------------------------------|
|-----------------------------------------------|-----------------------------------------------|
|10-10-10-10-10-10--9--9--9--9--9--9--7--7--7-7-|-9--9--9--9--9--9--7--7--7--7--7--7--7--7--7-7-|
|-7--7--7--7--7--7--7--7--7--7--7--7--7--7--7-7-|-5--5--5--5--5--5--5--5--5--5--5--5--5--5--5-5-|
|-0--0--0--0--0--0--0--0--0--0--0--0--0--0--0-0-|-5--5--5--5--5--5--5--5--5--5--5--5--5--5--5-5-|
|
|-----------------------------------------------|-----------------------------------------------|
|-----------------------------------------------|-----------------------------------------------|
|17-17-17-17-17-17-16-16-16-16-16-16-14-14-14-14|16-16-16-16-16-16-14-14-14-14-14-14-14-14-14-14|
|-x--x--x--x--x--x--x--x--x--x--x--x--x--x--x-x-|-x--x--x--x--x--x--x--x--x--x--x--x--x--x--x-x-|
|15-15-15-15-15-15-14-14-14-14-14-14-12-12-12-12|14-14-14-14-14-14-12-12-12-12-12-12-12-12-12-12|
|-----------------------------------------------|-----------------------------------------------|

|-------------------------------------------|-------------------------------------------------|
|-5---5-5-5-5-------------------------------|-------------------------------------------------|
|-4---4-4-4-4-7---------7--7--7--7--7--7--7-|-------------------------------------------------|
|-2---2-2-2-2-5---------5--5--5--5--5--5--5-|--9--9--9--9--9--9--7--7--7--7--7--7--5--5--5--5-|
|-2---2-2-2-2-3---------3--3--3--3--3--3--3-|--5--5--5--5--5--5--5--5--5--5--5--5--5--5--5--5-|
|-0---0-0-0-0-3---------3--3--3--3--3--3--3-|--5--5--5--5--5--5--5--5--5--5--5--5--5--5--5--5-|
|
|-------------------------------------------|-------------------------------------------------|
|-------------------------------------------|-------------------------------------------------|
|-9-9-9-9-9-9-12-12-12-12-12-12-12-12-12/14-|-14-14-14-14-14-14-14-14-14-14-14-14-16-16-16-16-|
|-x-x-x-x-x-x--x--x--x--x--x--x--x--x--x----|--x--x--x--x--x--x--x--x--x--x--x--x--x--x--x--x-|
|-7-7-7-7-7-7-10-10-10-10-10-10-10-10-10/12-|-12-12-12-12-12-12-12-12-12-12-12-12-14-14-14-14-|
|-------------------------------------------|-------------------------------------------------|

|-------------------------------------------------|     |------------------------------|
|-------------------------------------------------|     |------------------------------|
|-------------------------------------------------|     |------------------------------|
|-10-10-10-10-10-10--9--9--9--9--9--9--7--7--7--7-|     |--9-----7-----7---------------|
|--7--7--7--7--7--7--7--7--7--7--7--7--7--7--7--7-|E    |--5-----5-----5---------------|
|--0--0--0--0--0--0--0--0--0--0--0--0--0--0--0--0-|N    |--5-----5-----5---------------|
|                                                  D    |
|-------------------------------------------------|     |------------------------------|
|-------------------------------------------------|C    |------------------------------|
|-14-14-14-14-14-14-12-12-12-12-12-12-11-11-11-11-|H    |-12----11----11---------------|
|--x--x--x--x--x--x--x--x--x--x--x--x--x--x--x--x-|O    |--x-----x-----x---------------|
|-12-12-12-12-12-12-10-10-10-10-10-10--9--9--9--9-|R    |-10-----9-----9---------------|
|-------------------------------------------------|U    |------------------------------|
|Gtr. 3 Ha ha, cheaters!                           S
|-------------------------------------------------|
|-------------------------------------------------|F
|-17-17-17-17-17-17-16-16-16-16-16-16-14-14-14-14-|I
|--x--x--x--x--x--x--x--x--x--x--x--x--x--x--x--x-|G
|-15-15-15-15-15-15-14-14-14-14-14-14-12-12-12-12-|
|-------------------------------------------------|

 Gtr. 1
|--------------------------------------|---------------------------------|
|--------------------------------------|---------------------------------|
|---------0-----------------0----------|-------4---------------4---------|
|---4---------4----4---4--------4----4-|---5-------5---5---5-------5---5-|
|------7---------5--------7--------5---|-----3-------3-------3-------3---|
|-0---------0--------0--------0--------|-0-------0-------0-------0-------|
|Gtr. 2
|--------------------------------------|---------------------------------|
|--------------------------------------|---------------------------------|
|--------11-----------------9----------|-------7---------------7---------|
|---9---------9----9---9--------9----9-|---9-------9---9---9-------9---9-|
|-----10--------12-------10-------12---|-----7-------7-------7-------7---|
|-0---------0--------0--------0--------|-0-------0-------0-------0-------|
(pm on both guitars throughout for the next 3 measures)

|--------------------------------------|----------------------------------|
|--------------------------------------|----------------------------------|
|---------0-----------------0----------|--------4---------------4---------|
|---4---------4----4---4--------4----4-|----5-------5---5---5-----4-4-4-4-|
|------7---------5--------7--------5---|------3-------3-------3---2-2-2-2-|
|-0---------0--------0--------0--------|--0-------0-------0---------------|
|                                       pm. . . . . . . . . . . .
|--------------------------------------|----------------------------------|
|--------------------------------------|----------------------------------|
|--------11-----------------9----------|--------7---------------7---------|
|---9---------9----9---9--------9----9-|----9-------9---9---9-----4-4-4-4-|
|-----10--------12-------10-------12---|------7-------7-------7---2-2-2-2-|
|-0---------0--------0--------0--------|--0-------0-------0---------------|
                                        pm. . . . . . . . . . . .

Verse

|---------------------------------|---------------------------------|
|---------------------------------|---------------------------------|
|-------0---------------0---------|-------4---------------4---------|
|---4-------4---4---4-------4---4-|---5-------5---5---5-------5---5-|
|-----7-------5-------7-------5---|-----3-------3-------3-------3---|
|-0-------0-------0-------0-------|-0-------0-------0-------0-------|
|
|---------------------------------|---------------------------------|
|---------------------------------|---------------------------------|
|---------------------------------|---------------------------------|
|--*------------------------------|-5~-----(5)------5~-----(5)------|
|-2~-----(2)------2~-----(2)------|-3~-----(3)3333333~-----(3)333333|
|-0~-----(0)0000000~-----(0)000000|-3~-----(3)------3~-----(3)------|
(pm on both guitars throughout for the next 4 measures)
*Light, muffled palm muting on these chords but they still ring to give it
that cool heavy sound in the 2nd verse.

|---------------------------------|---------------------------------|
|---------------------------------|---------------------------------|
|-------0---------------0---------|-------4---------------4---------|
|---4-------4---4---4-------4---4-|---5-------5---5---5-------5---5-|
|-----7-------5-------7-------5---|-----3-------3-------3-------3---|
|-0-------0-------0-------0-------|-0-------0-------0-------0-------|
|
|---------------------------------|---------------------------------|
|---------------------------------|---------------------------------|
|---------------------------------|---------------------------------|
|---------------------------------|-5~-----(5)------5~-----(5)------|
|-2~-----(2)------2~-----(2)------|-3~-----(3)3333333~-----(3)333333|
|-0~-----(0)0000000~-----(0)000000|-3~-----(3)------3~-----(3)------|

|----------------------------------|
|----------------------------------|
|------------------2---------------|
|------2-5-4-----5---5-4-----------|
|----2---------3--------7/9--7---5-|
|--0---------0-------------0---0---|
|pm. .       . .           .   .
|----------------------------------|
|----------------------------------|
|----------------------------------|
|----------------------------------|
|---------------------------10---9-|
|------------------------------0---|
 pm                            .

Chorus

(Repeat Chorus fig on Gtrs. 1, 2, and 3)

 Gtr. 1
|-------------------------------------------------|
|-------------------------------------------------|
|-------------------------------------------------|
|--9--9--9--9--9--9--7--7--7--7--7--7--7--7--7--7-|
|--5--5--5--5--5--5--5--5--5--5--5--5--5--5--5--5-|
|--5--5--5--5--5--5--5--5--5--5--5--5--5--5--5--5-|
|Gtr. 2
|-------------------------------------------------|
|-------------------------------------------------|
|-12-12-12-12-12-12-11-11-11-11-11-11-11-11-11-11-|
|--x--x--x--x--x--x--x--x--x--x--x--x--x--x--x--x-|
|-10-10-10-10-10-10--9--9--9--9--9--9--9--9--9--9-|
|-------------------------------------------------|
|Gtr. 3
|-------------------------------------------------|
|-------------------------------------------------|
|-16-16-16-16-16-16-14-14-14-14-14-14-14-14-14-14-|
|--x--x--x--x--x--x--x--x--x--x--x--x--x--x--x--x-|
|-14-14-14-14-14-14-12-12-12-12-12-12-12-12-12-12-|
|-------------------------------------------------|

Guitar Solo

 Gtr. 1
|----------------------------------|----------------------------------|
|----------------------------------|--------------------------------12|
|--9~~~~~~-9^7^9-7~~~~~-7\4--2^4-2-|-0^2-0---------------9--11-12-11--|
|----------------------------------|-------5\4^5-4-5^4--------9-------|
|----------------------------------|------------------5/7-5/7---------|
|----------------------------------|----------------------------------|
|(Gtr. 2 riff B)                                           (End riff B)
|----------------------------------|----------------------------------|
|----------------------------------|----------------------------------|
|----------------------------------|----------------------------------|
|----------------------------------|----------------------------------|
|----------------2-----------------|---------------2------------------|
|--00-0-0-00-0-0-0-----------------|-00-0-0-00-0-0-0------------------|
 pm.. . . .. . .                     .. . . .. ..

 Gtr. 1 w/ riff B 2 1/2X on Gtr. 2                                  AH
|---12------14-------17-----------------------------------|-----------------------------|
|--------------------------15\12(12)~~~~~-12\7^8^10^8^7---|-7~~~~~----------------------|
|-9----9/11----11/14----14------------------------------9-|-------T21(9)~~~~(9)\4---9---|
|---------------------------------------------------------|-----------------------------|
|---------------------------------------------------------|-----------------------7---7-|
|---------------------------------------------------------|-----------------------------|
 pm                                                                               .   .

  PH         PH
|----------------------------------------------------|-----------------------------------------|
|----------------------------------------------------|---------------------------------17--15--|
|-9~~~~~-----12---14bbr(14)^12-14bbr(14)^12----------|-12^14~~~~~~-----------------16--------16|
|------------------------------------------14^12-----|---------------16----17------------------|
|-------7/10------------------------------------14^12|-----------------------12/14---14--15----|
|----------------------------------------------------|------------12----12---------------------|
 pm                                                                .

 Gtr. 3
|----------------------------------------------------|--3^5^7^5-----5/7-8---7---5---3-|
|----------------------------------------------------|-0----------5-------5---5---5---|
|----------------------------------------------------|--------------------------------|
|----------------------------------------------------|--------------------------------|
|----------------------------------------------------|--------------------------------|
|----------------------------------------------------|--------------------------------|
|pm                                                                       .   .   .
|Gtr. 1
|----------------------------------------------------|--0^2^3^2-----2/3-5---3---2---0-|
|-13---15bbr(15)^13----------------------------------|-0----------1-------0---0---0---|
|------------------16~~~(16)\------4^5^7^5^4/7^9T16^9|--------------------------------|
|----------------------------------------------------|--------------------------------|
|-----------------------------3^5^7------------------|--------------------------------|
|----------------------------------------------------|--------------------------------|
|pm                                                                       .   .   .
|                                                     Gtr. 2
|----------------------------------------------------|--------------------------------|
|----------------------------------------------------|--------------------------------|
|----------------------------------------------------|--------------------------------|
|----------------------------------------------------|-----------------------7/12\\---|
|----------------------------------------------------|---------------2-------7/12\\---|
|----------------------------------------------------|-00-0-0-00-0-0-0-------7/12\\---|
                                                   pm  .. . . .. . .

Bridge

 Gtr. 1
|------------------------------|-----------------------------|------------------------------|
|--5---------------------------|-----------------------------|------------------------------|
|--4---------7---------7-------|-----------------------------|------------------------------|
|--2---------5---------5-------|-9-----9---7---------5-------|-10----10---9---------7-------|
|--2---------3-----3-3-3---3-3-|-5---5-5---5-----5-5-5---5-5-|--7-----7---7---------7-------|
|--0-----0-0-------------------|-5-----5---5---------5-------|------0-----------0-0-----0-0-|
|pm      . .       . .     . .       .           . .     . .        .           . .     ..
|Gtr. 2
|--0---------------------------|(0)--------------------------|------------------------------|
|--x---------------------------|(-)--------------------------|------------------------------|
|--x---------------------------|(-)--------------------------|------------------------------|
|--2---------------------------|(2)--------------------------|(2)---------------------------|
|--2---------------------------|(2)--------------------------|(2)---------------------------|
|--0---------------------------|(0)--------------------------|(0)---------------------------|

|------------------------------|
|------------------------------|
|------------------------------|
|-9----7----5----5----4----0---|
|-5----5----5----2----2----0---|
|------------------------------|
|
|------------------------------|
|------------------------------|
|------------------------------|
|-9----7----5------------------|
|-5----5----5----5----2----5---|
|----------------3----2----2---|

Chorus

(Repeat Chorus fig on Gtrs. 1, 2, and 3)
 Gtr. 1
|-------------------------------------------------|-------------------------------------------|
|-------------------------------------------------|-5---5-5-5-5-------------------------------|
|-------------------------------------------------|-4---4-4-4-4-7---------7--7--7--7--7--7--7-|
|--9--9--9--9--9--9--7--7--7--7--7--7--7--7--7--7-|-2---2-2-2-2-5---------5--5--5--5--5--5--5-|
|--5--5--5--5--5--5--5--5--5--5--5--5--5--5--5--5-|-2---2-2-2-2-3---------3--3--3--3--3--3--3-|
|--5--5--5--5--5--5--5--5--5--5--5--5--5--5--5--5-|-0---0-0-0-0-3---------3--3--3--3--3--3--3-|
|Gtr. 2
|-------------------------------------------------|-------------------------------------------|
|-------------------------------------------------|-------------------------------------------|
|-12-12-12-12-12-12-11-11-11-11-11-11-11-11-11-11-|-9-9-9-9-9-9-12-12-12-12-12-12-12-12-12/14-|
|--x--x--x--x--x--x--x--x--x--x--x--x--x--x--x--x-|-x-x-x-x-x-x--x--x--x--x--x--x--x--x--x----|
|-10-10-10-10-10-10--9--9--9--9--9--9--9--9--9--9-|-7-7-7-7-7-7-10-10-10-10-10-10-10-10-10/12-|
|-------------------------------------------------|-------------------------------------------|
|Gtr. 3
|-------------------------------------------------|-3------------3/7------------------7/10----|
|-------------------------------------------------|-5------------5/8------------------8/10----|
|-16-16-16-16-16-16-14-14-14-14-14-14-14-14-14-14-|-------------------------------------------|
|--x--x--x--x--x--x--x--x--x--x--x--x--x--x--x--x-|-------------------------------------------|
|-14-14-14-14-14-14-12-12-12-12-12-12-12-12-12-12-|-------------------------------------------|
|-------------------------------------------------|-------------------------------------------|

|-------------------------------------------------|
|-------------------------------------------------|
|-------------------------------------------------|
|--9--9--9--9--9--9--7--7--7--7--7--7--5--5--5--5-|
|--5--5--5--5--5--5--5--5--5--5--5--5--5--5--5--5-|
|--5--5--5--5--5--5--5--5--5--5--5--5--5--5--5--5-|
|
|-------------------------------------------------|
|-------------------------------------------------|
|-14-14-14-14-14-14-14-14-14-14-14-14-16-16-16-16-|
|--x--x--x--x--x--x--x--x--x--x--x--x--x--x--x--x-|
|-12-12-12-12-12-12-12-12-12-12-12-12-14-14-14-14-|
|-------------------------------------------------|
|
|-10~~~~~~~~~~~~~~~~~~~~~~~~~~~~~~~~~-10----------|
|-10~~~~~~~~~~~~~~~~~~~~~~~~~~~~~~~~~-12----------|
|-------------------------------------------------|
|-------------------------------------------------|
|-------------------------------------------------|
|-------------------------------------------------|

|-------------------------------------------------|
|-------------------------------------------------|
|-------------------------------------------------|
|-10-10-10-10-10-10--9--9--9--9--9--9--7--7--7--7-|
|--7--7--7--7--7--7--7--7--7--7--7--7--7--7--7--7-|
|--0--0--0--0--0--0--0--0--0--0--0--0--0--0--0--0-|
|
|-------------------------------------------------|
|-------------------------------------------------|
|-14-14-14-14-14-14-12-12-12-12-12-12-11-11-11-11-|
|--x--x--x--x--x--x--x--x--x--x--x--x--x--x--x--x-|
|-12-12-12-12-12-12-10-10-10-10-10-10--9--9--9--9-|
|-------------------------------------------------|
|
|-12----------------10----------------14----------|
|-13----------------12----------------10----------|
|-------------------------------------------------|
|-------------------------------------------------|
|-------------------------------------------------|
|-------------------------------------------------|

|-------------------------------------------------|
|-------------------------------------------------|
|-------------------------------------------------|
|--9--9--9--9--9--9--7--7--7--7--7--7--7--7--7--7-|
|--5--5--5--5--5--5--5--5--5--5--5--5--5--5--5--5-|
|--5--5--5--5--5--5--5--5--5--5--5--5--5--5--5--5-|
|
|-------------------------------------------------|
|-------------------------------------------------|
|-12-12-12-12-12-12-11-11-11-11-11-11-11-11-11-11-|
|--x--x--x--x--x--x--x--x--x--x--x--x--x--x--x--x-|
|-10-10-10-10-10-10--9--9--9--9--9--9--9--9--9--9-|
|-------------------------------------------------|
|
|-15----------------14~~~~~~~~~~~~~~~~~~~~~~~~~~~-|
|-12----------------10~~~~~~~~~~~~~~~~~~~~~~~~~~~-|
|-------------------------------------------------|
|-------------------------------------------------|
|-------------------------------------------------|
|-------------------------------------------------|

Outro

 Gtr. 1 w/ talk box
|----------------------------------|----------------------------------|
|----------------------------------|----------------------------------|
|----------------------------------|----------------------------------|
|---------------5--(5)b------------|---------------5--(5)b--7-5-7~~~~-|
|--5---0---5^7-----------7-5-7~~~~-|-7\-------5^7---------------------|
|----------------------------------|----------------------------------|
|Gtr. 2
|----------------------------------|----------------------------------|
|----------------------------------|----------------------------------|
|----------------------------------|----------------------------------|
|----------------------------------|----------------------------------|
|----------------2-----------------|---------------2------------------|
|--00-0-0-00-0-0-0-----------------|-00-0-0-00-0-0-0------------------|
 pm.. . . .. . .                     .. . . .. . .

 Gtr. 1 (w/ Gtr. 2 continuing with riff B 5 1/2X)
|------------------------------------|------------------------------------|
|------------------------------------|------------------------------------|
|------------------------------------|-14bb////[16]--16--16--16--16--16---|
|--5^7^5-------------------5b--------|------------------------------------|
|--------7-5-7^5-------5^7-----7~~~~-|------------------------------------|
|----------------7-5^7---------------|------------------------------------|
 pm                                                   .   .   .   .   .

|-----------------------------------------------------|
|-----------------------------------------------------|
|--14bbr(14)-----12-14^12----------12b----------------|
|-------------14----------14-12^14------14-12-14~~~~~-|
|-----------------------------------------------------|
|-----------------------------------------------------|
 pm            .

 This part is really fast!
|---------------------------------------------------------------------------------|
|-12^15^12--12^15^12--12^15^12--12^15^12--12^15^12--12^15^12--12^15^12--12^15^12--|
|---------14--------14--------14--------14--------14--------14--------14--------14|
|---------------------------------------------------------------------------------|
|---------------------------------------------------------------------------------|
|---------------------------------------------------------------------------------|

|----------------------------------------|----12----12-12----12-12----12-12----12----12-|
|-15bb-------15bb~~~~~~~~~~~~-15bbr(15)\-|-15bb--15bb-----15bb-----15bb-----15bb--15bb--|
|----------------------------------------|----------------------------------------------|
|----------------------------------------|----------------------------------------------|
|----------------------------------------|----------------------------------------------|
|----------------------------------------|----------------------------------------------|

                                                                   hold bend  *
|-15bb------r(15)--12^15^12---------------|-----------------------------------------------------|
|---------------------------15bb----r(15)-|---------------------------15------------------------|
|-----------------------------------------|-12^14^12-14bb///////[16]----[16]--r[15]r(14)---12-14|
|-----------------------------------------|-----------------------------------------------------|
|-----------------------------------------|-----------------------------------------------------|
|-----------------------------------------|-----------------------------------------------------|
*Gradual release of the bend one half step, then gradual release the rest.

|---------------------------------------------------------|--------------------------------|
|-12^15^12------------------------------------------------|--------------------------------|
|------------14-12-14^12----------------------------------|--------------------------------|
|------------------------14--12^14-12-14-------------(14)\|\9\-----------------------------|
|---------------------------------------------------------|--------------------------------|
|---------------------------------------------------------|--------------------------------|

Begin fade
 Gtr. 2 (Gtr. 1 rests for 4 measures)
|----------------------------------|----------------------------------|
|----------------------------------|----------------------------------|
|----------------------------------|----------------------------------|
|----------------------------------|----------------------------------|
|----------------2-----------------|---------------2------------------|
|--00-0-0-00-0-0-0-----------------|-00-0-0-00-0-0-0------------------|
 pm.. . . .. . .                     .. . . .. . .

|----------------------------------|----------------------------------|
|----------------------------------|----------------------------------|
|----------------------------------|----------------------------------|
|----------------------------------|----------------------------------|
|----------------2-----------------|---------------2------------------|
|--00-0-0-00-0-0-0-----------------|-00-0-0-00-0-0-0------------------|
 pm.. . . .. . .                     .. . . .. . .

 Gtr. 1 w/ Gtr. 2 continuing with riff B 3 1/2X                     *
|------------------------------|-------------------------------|--------------------------------|
|------------------------------|-------------------------------|--------------------------------|
|------------------------------|-------------------------------|--------------------------------|
|------------------------------|-----------------5--(5)bb//////|/[6]r-----------r(5)~~~~~~~~(5)\|
|-------------5^7---7---7~~~~~-|-7-----------5^7---------------|--------------------------------|
|------------------------------|-------------------------------|--------------------------------|
*Gradual release

                 *Feedback
|----------|------------------|-------------------------------------|---------------------------|
|----------|-----x------------|-------------------------------------|---------------------------|
|----------|------------------|-------------------------------------|---------------------------|
|----------|---------5b5b5b~~~|-5b----------------------------------|---------------------------|
|----------|--------7---------|-----------7^5---7--(7)~~~~~~~~~~~~~~|~~~~~~~~~~~~~~~------------|
|----------|------------------|-------------------------------------|---------------------------|

There you have it. 100% correct guaranteed or your money back. Please rate and comment. 
Also let
me know if any of you want any more ATR tabs, I think I can tab out most of their songs.
Thanx and have fun!!!


Legend:

pm.= palm mute
/= slide up
\= slide down
x= muted struck string
~= vibrato or hold note
(n)= sustained note (substitute for "n")
^= slur action (hammer-on or pull-off)
b= bend one half step
bb= bend one full step
bb//[n]= gradual bend to sim indicated note (substitute for "n")
r= release bend
T= tap
AH= artificial harmonic
PH= pinch harmonic
comments
We did not receive enough feedback on this tab! Please rate:
print report bad tab
1 2 3 4 5
1 comment total.
0 reply
gmanthegreat wrote on March 31 2012, 06:12 pm

awsome tab bro

I want to post or [tab]
guest
You may want to rate the tab now too:
select rating
Please do not post tabs as comments. Select "correction" instead!