Oops, an error
Loading. Please wait.

A Love Like War Tab

ver5
ver5

Intro

Interactive

More versions @911Tabs.com
1,802 views 3 this week
no commentswrite comment
1 2 3 4 5
worth learning
x 3
Autoscroll
+/-
esc
set tempo
stop
Contributor
Difficulty
Tuning
intermediate
C# G# C# F# A# D#
Hey! There's an official Ultimate Guitar app which is ideal
for learning songs when you're away from computer. Get the app
WARNING: You are trying to view
                                    content from Ultimate-Guitar.com
                                    in an unauthorized application,
                                    which is prohibited.

                                    Please use an official Ultimate
                                    Guitar Tabs application for iPhone,
                                    iPad or Android to access legitimate
                                    chords, guitar, bass, and drum tabs
                                    from Ultimate-Guitar.com database.

                                    Type "ultimate guitar tabs" in Apple
                                    App Store's or Android Market's
                                    search to find the application.
All time low - A love like war

TUNING - Drop C#


INTRO
|-------------------|-------------------|-------------------|-------------------|
|-------------------|--0\---------------|-------------------|-------------------|
|--6--6--6--6----7--|--x----------------|--4--4--4--4--2----|-------------------|
|--4--4--4--4----4--|--6\----------6-7--|--4--4--4--4--2----|--4\--------4-6-7--|
|--5--5--5--5----5--|--7\--------7------|--4--4--4--4-------|--4\---------------|
|-------------------|-------------------|-------------------|--4\---------------| x2
                        SLIDE OUT


VERSE ONE (WHERE THE SINGING COMES IN)
|-------------------|-------------------|-------------------|-------------------|
|-------------------|--0\---------------|-------------------|-------------------|
|--6--6--6--6----7--|--x----------------|--4--4--4--4--2----|-------------------|
|--4--4--4--4----4--|--6\----------6-7--|--4--4--4--4--2----|--4\--------4-6-7--|
|--5--5--5--5----5--|--7\--------7------|--4--4--4--4-------|--4\---------------|
|-------------------|-------------------|-------------------|--4\---------------| X4



|-------------------|-------------------|-------------------|-------------------|
|-------------------|-------------------|-------------------|-------------------|
|--11----------13---|---14----------16--|--11----------13---|---14----------16--|
|-------------------|-------------------|-------------------|-------------------|
|--9-----------11---|---12----------14--|--9-----------11---|---12----------14--|
|-------------------|-------------------|-------------------|-------------------|x1



CHORUS
|-------------------|-------------------|-------------------|-------------------|
|-------------------|-------------------|-------------------|-------------------|
|-------------------|-------------------|-------------------|-------------------|
|-------------------|-------------------|-------------------|-------------------|
|--5---5---5---5----|--5---5---5---5----|--5---5---5---5----|--5---5---4---4----|
|-------------------|-------------------|-------------------|-------------------|


|-------------------|-------------------|-------------------|-------------------|
|-------------------|-------------------|-------------------|-------------------|
|-------------------|-------------------|-------------------|-------------------|
|-------------------|-------------------|-------------------|-------------------|
|--2---2---2---2----|--2---2---2---2----|-------------------|-------------------|
|-------------------|-------------------|--2---2---2---2----|--2---2---2---2----|


|-------------------|-------------------|-------------------|-------------------|
|-------------------|-------------------|-------------------|-------------------|
|-------------------|-------------------|-------------------|-------------------|
|-------------------|-------------------|-------------------|-------------------|
|-------------------|-------------------|-------------------|-------------------|
|--4---4---4---4----|--4---4---4---4----|--4---4---4---4----|--4---4---6---6----|


|-------------------|-------------------|-------------------|-------------------|
|-------------------|-------------------|-------------------|-------------------|
|-------------------|-------------------|-------------------|-------------------|
|-------------------|-------------------|-------------------|-------------------|
|-------------------|-------------------|-------------------|-------------------|
|--7---7---7---7----|--7---7---7---7----|--7---7---7---7----|--7---7---7---7----| X2


CHORUS END (THE HEAVY BIT) (WE GO TOGETHER)
|-------------------|-------------------|-------------------|-------------------|
|-------------------|-------------------|-------------------|-------------------|
|-------------------|-------------------|--4--4--4--4----6--|-------------------|
|-------------------|-------------------|--4--4--4--4----6--|--4----------------|
|--0--0--0--0--X-0--|--2----X-X-X-X-X---|--4--4--4--4----4--|--4---X--X--X--X---|
|--0--0--0--0--X-0--|--2----X-X-X-X-X---|-------------------|--4---X--X--X--X---| X2



VERSE TWO
|-------------------|-------------------|-------------------|-------------------|
|-------------------|--0\---------------|-------------------|-------------------|
|--6--6--6--6----7--|--x----------------|--4--4--4--4--2----|-------------------|
|--4--4--4--4----4--|--6\----------6-7--|--4--4--4--4--2----|--4\--------4-6-7--|
|--5--5--5--5----5--|--7\--------7------|--4--4--4--4-------|--4\---------------|
|-------------------|-------------------|-------------------|--4\---------------| X4



|-------------------|-------------------|-------------------|-------------------|
|-------------------|-------------------|-------------------|-------------------|
|--11----------13---|---14----------16--|--11----------13---|---14----------16--|
|-------------------|-------------------|-------------------|-------------------|
|--9-----------11---|---12----------14--|--9-----------11---|---12----------14--|
|-------------------|-------------------|-------------------|-------------------|x1


CHORUS

|-------------------|-------------------|-------------------|-------------------|
|-------------------|-------------------|-------------------|-------------------|
|-------------------|-------------------|-------------------|-------------------|
|-------------------|-------------------|-------------------|-------------------|
|--5---5---5---5----|--5---5---5---5----|--5---5---5---5----|--5---5---4---4----|
|-------------------|-------------------|-------------------|-------------------|


|-------------------|-------------------|-------------------|-------------------|
|-------------------|-------------------|-------------------|-------------------|
|-------------------|-------------------|-------------------|-------------------|
|-------------------|-------------------|-------------------|-------------------|
|--2---2---2---2----|--2---2---2---2----|-------------------|-------------------|
|-------------------|-------------------|--2---2---2---2----|--2---2---2---2----|


|-------------------|-------------------|-------------------|-------------------|
|-------------------|-------------------|-------------------|-------------------|
|-------------------|-------------------|-------------------|-------------------|
|-------------------|-------------------|-------------------|-------------------|
|-------------------|-------------------|-------------------|-------------------|
|--4---4---4---4----|--4---4---4---4----|--4---4---4---4----|--4---4---6---6----|


|-------------------|-------------------|-------------------|-------------------|
|-------------------|-------------------|-------------------|-------------------|
|-------------------|-------------------|-------------------|-------------------|
|-------------------|-------------------|-------------------|-------------------|
|-------------------|-------------------|-------------------|-------------------|
|--7---7---7---7----|--7---7---7---7----|--7---7---7---7----|--7---7---7---7----| X2


CHORUS END (THE HEAVY BIT) (WE GO TOGETHER)
|-------------------|-------------------|-------------------|-------------------|
|-------------------|-------------------|-------------------|-------------------|
|-------------------|-------------------|--4--4--4--4----6--|-------------------|
|-------------------|-------------------|--4--4--4--4----6--|--4----------------|
|--0--0--0--0--X-0--|--2----X-X-X-X-X---|--4--4--4--4----4--|--4---X--X--X--X---|
|--0--0--0--0--X-0--|--2----X-X-X-X-X---|-------------------|--4---X--X--X--X---| X2



SOLO

|-------------------|-------------------|------------------|--------------------|
|-------------------|-------------------|------------------|--------------------|
|--14--14-----------|--14--14-----13-13-|----------13--13--|--------------------|
|----------16--16---|----------16-------|--14--14----------|--14--14------------|
|-------------------|-------------------|------------------|--------------------|
|-------------------|-------------------|------------------|--------------------|


|-------------------|-------------------|------------------|--------------------|
|-------------------|-------------------|------------------|--------------------|
|--13--13-----------|--13--13------14---|-14---------14-14-|--------------------|
|----------14--14---|----------14-------|-----16--16-------|--16----------------|
|-------------------|-------------------|------------------|--------------------|
|-------------------|-------------------|------------------|--------------------|

|-------------------|-------------------|------------------|--------------------|
|-------------------|-------------------|------------------|--------------------|
|--14--14-----------|--14--14-----13-13-|----------13--13--|--------------------|
|----------16--16---|----------16-------|--14--14----------|--14--14------------|
|-------------------|-------------------|------------------|--------------------|
|-------------------|-------------------|------------------|--------------------|


|-------------------|--21----17---------|------------------|--------------------|
|---------------14--|-------------------|------------------|--------------------|
|--13--14--16-------|-------------------|------------------|--------------------|
|-------------------|-------------------|------------------|--------------------|
|-------------------|-------------------|------------------|--------------------|
|-------------------|-------------------|------------------|--------------------|



CLEAN PART BEFORE BUILD UP (I BELIEVE THIS IS PLAYED ON ANOTHER GUITAR ALSO DROP C# BUT
WITH CAPO 2 FRET, I WILL PUT 2 VERSIONS HERE, ONE FOR EACH TUNING)


DROP C# CAPO 2ND FRET

|-------------------------|---------------------------|
|-------------------------|---------------------------|
|--------0-----0----0-----|--------0-----------0------|
|----2-----2-----2----2---|----2-----2-----4-----4----|
|--3---3-----3-----3-----2|--0---0-----0/5---5-----5--|
|-------------------------|---------------------------| INTO BUILD UP


DROP C#
|-------------------------|---------------------------|
|-------------------------|---------------------------|
|--------2-----2----2-----|--------2-----------2------|
|----4-----4-----4----4---|----4-----4-----2-----2----|
|--5---5-----5-----5-----4|--2---2-----2-----------2--|
|-------------------------|--------------2---2--------| INTO BUILD UP


BUILD UP
|---------------------------|--------------------------|
|---------------------------|--------------------------|
|---------------------------|--------------------------|
|---------------------------|--------------------------|
|--4--4--4--4--4--4--4--4---|--4--4--4--4--4--4--4--4--|
|--4--4--4--4--4--4--4--4---|--4--4--4--4--4--4--4--4--|
PALM MUTE AND RELEASE SLOWLY BUILDING UP

|-------------------|-------------------|
|-------------------|-------------------|
|-------------------|-------------------|
|-------------------|-------------------|
|--7--7--7--7--7----|---7--7--7--7--7---|
|--7--7--7--7--7----|---7--7--7--7--7---|

CHORUS

|-------------------|-------------------|-------------------|-------------------|
|-------------------|-------------------|-------------------|-------------------|
|-------------------|-------------------|-------------------|-------------------|
|--7---7---7---7----|--7---7---7---7----|--7---7---7---7----|--7---7---6---6----|
|--5---5---5---5----|--5---5---5---5----|--5---5---5---5----|--5---5---4---4----|
|-------------------|-------------------|-------------------|-------------------|


|-------------------|-------------------|-------------------|-------------------|
|-------------------|-------------------|-------------------|-------------------|
|-------------------|-------------------|-------------------|-------------------|
|--4---4---4---4----|--4---4---4---4----|-------------------|-------------------|
|--2---2---2---2----|--2---2---2---2----|--2---2---2---2----|--2---2---2---2----|
|-------------------|-------------------|--2---2---2---2----|--2---2---2---2----|


|-------------------|-------------------|-------------------|-------------------|
|-------------------|-------------------|-------------------|-------------------|
|-------------------|-------------------|-------------------|-------------------|
|-------------------|-------------------|-------------------|-------------------|
|--4---4---4---4----|--4----------------|--4---4---4---4----|--4----------------|
|--4---4---4---4----|--4----------------|--4---4---4---4----|--4----------------|


|-------------------|-------------------|-------------------|-------------------|
|-------------------|-------------------|-------------------|-------------------|
|-------------------|-------------------|-------------------|-------------------|
|-------------------|-------------------|-------------------|-------------------|
|--7---7---7---7----|--7----------------|--7---7---7---7----|--7----------------|
|--7---7---7---7----|--7----------------|--7---7---7---7----|--7----------------| X2


2ND GUITAR PART PLAYING OCTAVES (THIS IS VERY LOW IN THE MIX AND HARD TO HEAR SO THINK 
IS RIGHT BUT NOT 100%)
PLAY OVER CHORUS PART.

|-------------------|-------------------|-------------------|-------------------|
|--1010101010101010-|--1010101010101010-|--1010101010101010-|--1212121212121212-|
|--X-X-X-X-X-X-X-X--|--X-X-X-X-X-X-X-X--|--X-X-X-X-X-X-X-X--|--X-X-X-X-X-X-X-X--|
|--7-7-7-7-7-7-7-7--|--7-7-7-7-7-7-7-7--|--7-7-7-7-7-7-7-7--|--9-9-9-9-9-9-9-9--|
|-------------------|-------------------|-------------------|-------------------|
|-------------------|-------------------|-------------------|-------------------|


|-------------------|-------------------|-------------------|-------------------|
|--14-14-14-14-14---|--14-14-14-14-14---|--14-14-14-14-14---|--14-14-14-14-14---|
|--X--X--X--X--X----|--X--X--X--X--X----|--X--X--X--X--X----|--X--X--X--X--X----|
|--11-11-11-11-11---|--11-11-11-11-11---|--11-11-11-11-11---|--11-11-11-11-11---|
|-------------------|-------------------|-------------------|-------------------|
|-------------------|-------------------|-------------------|-------------------|

CHORUS END (THE HEAVY BIT) (WE GO TOGETHER) (ALSO USE SAME OCTAVE CHORDS OVER THIS BIT)
|-------------------|-------------------|-------------------|-------------------|
|-------------------|-------------------|-------------------|-------------------|
|-------------------|-------------------|--4--4--4--4----6--|-------------------|
|-------------------|-------------------|--4--4--4--4----6--|--4----------------|
|--0--0--0--0--X-0--|--2----X-X-X-X-X---|--4--4--4--4----4--|--4---X--X--X--X---|
|--0--0--0--0--X-0--|--2----X-X-X-X-X---|-------------------|--4---X--X--X--X---| X4


pLAY SOLO PART AGAIN TO END OR CARRY ON PLAYING THE CHORUS END PART
SOLO
|-------------------|-------------------|------------------|--------------------|
|-------------------|-------------------|------------------|--------------------|
|--14--14-----------|--14--14-----13-13-|----------13--13--|--------------------|
|----------16--16---|----------16-------|--14--14----------|--14--14------------|
|-------------------|-------------------|------------------|--------------------|
|-------------------|-------------------|------------------|--------------------|


|-------------------|-------------------|------------------|--------------------|
|-------------------|-------------------|------------------|--------------------|
|--13--13-----------|--13--13------14---|-14---------14-14-|--------------------|
|----------14--14---|----------14-------|-----16--16-------|--16----------------|
|-------------------|-------------------|------------------|--------------------|
|-------------------|-------------------|------------------|--------------------|

|-------------------|-------------------|------------------|--------------------|
|-------------------|-------------------|------------------|--------------------|
|--14--14-----------|--14--14-----13-13-|----------13--13--|--------------------|
|----------16--16---|----------16-------|--14--14----------|--14--14------------|
|-------------------|-------------------|------------------|--------------------|
|-------------------|-------------------|------------------|--------------------|


|-------------------|--21----17---------|------------------|--------------------|
|---------------14--|-------------------|------------------|--------------------|
|--13--14--16-------|-------------------|------------------|--------------------|
|-------------------|-------------------|------------------|--------------------|
|-------------------|-------------------|------------------|--------------------|
|-------------------|-------------------|------------------|--------------------|

END

HOPE THAT HELPS
comments
We did not receive enough feedback on this tab! Please rate:
print report bad tab
1 2 3 4 5
I want to post or [tab]
guest
You may want to rate the tab now too:
select rating
Please do not post tabs as comments. Select "correction" instead!