Oops, an error
Loading. Please wait.

Backseat Serenade Tab

ver2
ver2

Whole song

Interactive

More versions @911Tabs.com
13,948 views 84 this week
1 commentread comment
1 2 3 4 5
excellent!
x 8
Autoscroll
+/-
esc
set tempo
stop
Difficulty
Tuning
intermediate
C# G# C# F# A# D#
Hey! There's an official Ultimate Guitar app which is ideal
for learning songs when you're away from computer. Get the app
WARNING: You are trying to view
                                    content from Ultimate-Guitar.com
                                    in an unauthorized application,
                                    which is prohibited.

                                    Please use an official Ultimate
                                    Guitar Tabs application for iPhone,
                                    iPad or Android to access legitimate
                                    chords, guitar, bass, and drum tabs
                                    from Ultimate-Guitar.com database.

                                    Type "ultimate guitar tabs" in Apple
                                    App Store's or Android Market's
                                    search to find the application.
Tuning:
D#
A#
F#
C#
G#
C#

(Jack)

Intro


 --------------------------------------------------------------------|
 --------------------------------------------------------------------|
 ---------12------12-------------------------------------------------|
 ------12------12----12---(2x)---------------------------------------|
 ---10------10-------------------------------------------------------|
---------------------------------------------------------------------|

Verse (2x)

---------------------------------------------------------------------|
 --------------------------------------------------------------------|
 --------------------------------------------------------------------|
 -------12-------12-------------10----10-----------------------------|
 -----12------12---12--(2x)---10----10---10—(2x)---------------------|
 --10------10---------------8-----8----------------------------------|
---------------------------------------------------------------------|

---------------------------------------------------------------------|
 --------------------------------------------------------------------|
 ------9-----9----------------10------10--------11-----12------------|
 ----9-----9---9-(2x)-------10------10---10---11-----12--------------|
 --7-----7----------------8-------8---------9------10----------------|
---------------------------------------------------------------------|


Chorus:

 --------------------------------------------------------------------|
 --------------------------------------------------------------------|
 ----------5-55--5---------------7-77--7--777------------------------|
 --2---22--5-55--5-----5---55---7-77--7--777-------------------------|
 --2---22--3-33--3-----5---55---5-55--5--555-------------------------|
 --2---22--------------5---55----------------------------------------|



 -------------------------------------------------------------|
 -------------------------------------------------------------|
 ----------5-55--5----------7777777777------------------------|
 --2---22--5-55--5----------7777777777------------------------|
 --2---22--3-33--3----------5555555555------------------------|
 --2---22-----------------------------------------------------|

 ------------------------------------------------------------------|
 ------------------------------------------------------------------|
 ------------12-----12---------------------------------------------|
 ---------12-----12----12-----(2x)---------------------------------|
 ------9------9----------------------------------------------------|
 ------------------------------------------------------------------|

Verse (2x)

---------------------------------------------------------------------|
 --------------------------------------------------------------------|
 --------------------------------------------------------------------|
 -------12-------12-------------10----10-----------------------------|
 -----12------12---12--(2x)---10----10---10—(2x)---------------------|
 --10------10---------------8------8---------------------------------|
---------------------------------------------------------------------|

---------------------------------------------------------------------|
 --------------------------------------------------------------------|
 ------9-----9----------------10------10--------11----12-------------|
 ----9-----9---9-(2x)-------10------10---10---11-----12--------------|
 --7-----7---------------8-------8----------9------10----------------|
 --------------------------------------------------------------------|

Pre Chorus:

 --------(7)------------------------------------------------------------|
 --------(7)------------------------------------------------------------|
 --------(7)------------------------------------------------------------|
 --------(7)------------------------------------------------------------|
 -----------------------------------------------------------------------|
 -----------------------------------------------------------------------|

Chorus:

 --------------------------------------------------------------------|
 --------------------------------------------------------------------|
 ----------5-55--5---------------7-77--7--777------------------------|
 --2---22--5-55--5-----5---55---7-77--7--777-------------------------|
 --2---22--3-33--3-----5---55---5-55--5--555-------------------------|
 --2---22--------------5---55----------------------------------------|



 --------------------------------------------------------------------|
 --------------------------------------------------------------------|
 ----------5-55--5----------7777777777-------------------------------|
 --2---22--5-55--5----------7777777777-------------------------------|
 --2---22--3-33--3----------5555555555-------------------------------|
 --2---22------------------------------------------------------------|

Bridge (3x)

 --------------------------------------------------------------------|
 ---------0----0-------------------0-----0---------------------------|
 --------------------0-----0--------------------0-----0--------------|
 ------5----5------7-----7-----9------9------4----4------------------|
 ----3-----3------5-----5----7------7------2-----2-------------------|
 --------------------------------------------------------------------|

Chorus:

 --------------------------------------------------------------------|
 --------------------------------------------------------------------|
 ----------5-55--5--------------7-77--7--777-------------------------|
 --2---22--5-55--5-----5---55---7-77--7--777-------------------------|
 --2---22--3-33--3-----5---55---5-55--5--555-------------------------|
 --2---22--------------5---55----------------------------------------|



 --------------------------------------------------------------------|
 --------------------------------------------------------------------|
 ----------5-55--5----------7777777777-------------------------------|
 --2---22--5-55--5----------7777777777-------------------------------|
 --2---22--3-33--3----------5555555555-------------------------------|
 --2---22------------------------------------------------------------|



---------------------------------------------------------------------|
 --------------------------------------------------------------------|
 -------------5-55--5---------------7-77--7--777---------------------|
 --222---222--5-55--5-----5---55---7-77--7--777----------------------|
 --222---222--3-33--3-----5---55---5-55--5--555----------------------|
 --222---222--------------5---55-------------------------------------|



 --------------------------------------------------------------------|
 --------------------------------------------------------------------|
 ----------5-55--5----------7777777777-------------------------------|
 --2---22--5-55--5----------7777777777-------------------------------|
 --2---22--3-33--3----------5555555555-------------------------------|
 --2---22------------------------------------------------------------|

Outro:


 --------------------------------------------------------------------|
 --------------------------------------------------------------------|
 -------12-------12-------------10----10-----------------------------|
 -----12------12---12--(3x)---10----10---10--------------------------|
 --10------10---------------8-----8----------------------------------|
---------------------------------------------------------------------|

 --------------------------------------------------------------------|
 --------------------------------------------------------------------|
 -------12-------12-----------12------12-----------------------------|
 -----12------12---12-----12------12----12~--------------------------|
 --10------10-----------10------10-----------------------------------|
---------------------------------------------------------------------|


Alex

Intro:

 --------------------------------------------------------------------|
 --------------------------------------------------------------------|
 --------------------------------------------------------------------|
 --------------------------------------------------------------------|
 ---10-10-10--------10-10-10-------10-10-10-------10-10-10-----------|
 --------------------------------------------------------------------|

Verse: X



Pre Chorus:
    XXXXXXX
 --------------------------------------------------------------------|
 --------------------------------------------------------------------|
 --------------------------------------------------------------------|
 --77777777—7/-\-----------------------------------------------------|
 --77777777—7/-\-----------------------------------------------------|
 --77777777—7/-\-----------------------------------------------------|

Chorus:

 --------------------------------------------------------------------|
 --------------------------------------------------------------------|
 ----------5-55--5---------------7-77--7--777------------------------|
 --2---22--5-55--5-----5---55---7-77--7--777-------------------------|
 --2---22--3-33--3-----5---55---5-55--5--555-------------------------|
 --2---22--------------5---55----------------------------------------|



 --------------------------------------------------------------------|
 --------------------------------------------------------------------|
 ----------5-55--5----------7777777777-------------------------------|
 --2---22--5-55--5----------7777777777-------------------------------|
 --2---22--3-33--3----------5555555555-------------------------------|
 --2---22------------------------------------------------------------|


 -----------------------------------------------------------------------|
 -----------------------------------------------------------------------|
 --------------5-55--5--------------7-77--7--777------------------------|
 --222---222--5-55--5-----5---55---7-77--7--777-------------------------|
 --222---222--3-33--3-----5---55---5-55--5--555-------------------------|
 --222---222--------------5---55----------------------------------------|



 --------------------------------------------------------------------|
 --------------------------------------------------------------------|
 ----------5-55--5----------7777777777~------------------------------|
 --2---22--5-55--5----------7777777777~------------------------------|
 --2---22--3-33--3----------5555555555~------------------------------|
 --2---22------------------------------------------------------------|




Verse:

 --------------------------------------------------------------------|
 --------------------------------------------------------------------|
 -----5555------7----------------------------------------------------|
 -----5555------7----------------------------------------------------|
 -----3333------5----------------------------------------------------|
 --------------------------------------------------------------------|

Pre Chorus:
   XXXXXXXX
 --------------------------------------------------------------------|
 --------------------------------------------------------------------|
 --------------------------------------------------------------------|
 --77777777—7/-\-----------------------------------------------------|
 --77777777—7/-\-----------------------------------------------------|
 --77777777—7/-\-----------------------------------------------------|

Chorus:

---------------------------------------------------------------------|
 --------------------------------------------------------------------|
 ----------5-55--5--------------7-77--7--777-------------------------|
 --2---22--5-55--5-----5---55---7-77--7--777-------------------------|
 --2---22--3-33--3-----5---55---5-55--5--555-------------------------|
 --2---22--------------5---55----------------------------------------|



 --------------------------------------------------------------------|
 --------------------------------------------------------------------|
 ----------5-55--5----------7777777777-------------------------------|
 --2---22--5-55--5----------7777777777-------------------------------|
 --2---22--3-33--3----------5555555555-------------------------------|
 --2---22------------------------------------------------------------|


 -----------------------------------------------------------------------|
 -----------------------------------------------------------------------|
 -------------5-55--5---------------7-77--7--777------------------------|
 --222---222--5-55--5-----5---55---7-77--7--777-------------------------|
 --222---222--3-33--3-----5---55---5-55--5--555-------------------------|
 --222---222--------------5---55----------------------------------------|



 --------------------------------------------------------------------|
 --------------------------------------------------------------------|
 ----------5-55--5----------7777777777~------------------------------|
 --2---22--5-55--5----------7777777777~------------------------------|
 --2---22--3-33--3----------5555555555~------------------------------|
 --2---22------------------------------------------------------------|

Bridge:


 -3--3-------2--2------3--3-------5--5---------3---3---3---3---------|
 -5--5-------3--3------5--5-------7—7-----------5---5---5---5--------|
 --------------------------------------------------------------------|
 --------------------------------------------------------------------|
 --------------------------------------------------------------------|
 --------------------------------------------------------------------|

 --2---2---2---2---3---3---3---3---5---5---5---5---3---3---3---3----------|
 ----3---3---3---3---5---5---5---5---7---7---7---7---5---5---5---5--------|
 -------------------------------------------------------------------------|
 -------------------------------------------------------------------------|
 -------------------------------------------------------------------------|
 -------------------------------------------------------------------------|

 --------------------------------------------------------------------|
 --------------------------------------------------------------------|
 --------------------------------------------------------------------|
 --------------------------------------------------------------------|
 -10-10-10------10-10-10------10-10-10-------------------------------|
 --------------------------------------------------------------------|




Chorus:

 --------------------------------------------------------------------|
 --------------------------------------------------------------------|
 ----------5-55--5--------------7-77--7--777-------------------------|
 --2---22--5-55--5-----5---55---7-77--7--777-------------------------|
 --2---22--3-33--3-----5---55---5-55--5--555-------------------------|
 --2---22--------------5---55----------------------------------------|





 --------------------------------------------------------------------|
 --------------------------------------------------------------------|
 ----------5-55--5----------7777777777-------------------------------|
 --2---22--5-55--5----------7777777777-------------------------------|
 --2---22--3-33--3----------5555555555-------------------------------|
 --2---22------------------------------------------------------------|


 --------------------------------------------------------------------|
 --------------------------------------------------------------------|
 -------------5-55--5---------------7-77--7--777---------------------|
 --222---222--5-55--5-----5---55---7-77--7--777----------------------|
 --222---222--3-33--3-----5---55---5-55--5--555----------------------|
 --222---222--------------5---55-------------------------------------|



 --------------------------------------------------------------------|
 --------------------------------------------------------------------|
 ----------5-55--5----------7777777777-------------------------------|
 --2---22--5-55--5----------7777777777-------------------------------|
 --2---22--3-33--3----------5555555555-------------------------------|
 --2---22------------------------------------------------------------|

Outro:

---------------------------------------------------------------------|
 --------------------------------------------------------------------|
 ----------5-55--5--------------7-77--7--777-------------------------|
 --2---22--5-55--5-----5---55---7-77--7--777-------------------------|
 --2---22--3-33--3-----5---55---5-55--5--555-------------------------|
 --2---22--------------5---55----------------------------------------|



 --------------------------------------------------------------------|
 --------------------------------------------------------------------|
 ----------5-55--5----------7~---------------------------------------|
 --2---22--5-55--5----------7~---------------------------------------|
 --2---22--3-33--3----------5~---------------------------------------|
 --2---22------------------------------------------------------------|






 -----------------------------------------------------------------------|
 -----------------------------------------------------------------------|
 --------------5-55--5--------------7-77--7--777------------------------|
 --222---222--5-55--5-----5---55---7-77--7--777-------------------------|
 --222---222--3-33--3-----5---55---5-55--5--555-------------------------|
 --222---222--------------5---55----------------------------------------|



 --------------------------------------------------------------------|
 --------------------------------------------------------------------|
 ----------5-55--5----------7~---------------------------------------|
 --2---22--5-55--5----------7~---------------------------------------|
 --2---22--3-33--3----------5~---------------------------------------|
 --2---22------------------------------------------------------------|
comments
print report bad tab
1 comment total.
0 reply
AWRH14 wrote on May 23 2013, 05:12 pm

I thought it's played in drop D and the chords are
E|-----------|
B|-----------|
G|--8-4---6--|
D|--6-4-4-6--|
A|--6-2-4-4--|
D|------4----|
Not sure on the strumming pattern but yours sounds very good

I want to post or [tab]
guest
You may want to rate the tab now too:
select rating
Please do not post tabs as comments. Select "correction" instead!