Oops, an error
Loading. Please wait.

Break Your Little Heart Tab

ver3
ver3
More versions @911Tabs.com
3,596 views 3 this week
1 commentread comment
1 2 3 4 5
poor
x 1
Autoscroll
+/-
esc
set tempo
stop
Difficulty
Tuning
intermediate
D A D G B E
WARNING: You are trying to view
                                    content from Ultimate-Guitar.com
                                    in an unauthorized application,
                                    which is prohibited.

                                    Please use an official Ultimate
                                    Guitar Tabs application for iPhone,
                                    iPad or Android to access legitimate
                                    chords, guitar, bass, and drum tabs
                                    from Ultimate-Guitar.com database.

                                    Type "ultimate guitar tabs" in Apple
                                    App Store's or Android Market's
                                    search to find the application.
Break Your Little Heart (itunes exclusive) - ALL TIME LOW

Hope it's awesome. :D

INTRO

Guitar 1: Play 2 times

e|------------------------------------------------------------------------|
B|------------------------------------------------------------------------|
G|----------------------------------------------5-------------------------|
D|-3--3-3-------5--5-5-------7--7-7-------7--7--5-5-----------------------|
A|-3--3-3-------5--5-5-------7--7-7-------7--7--3-5-----------------------|
D|-3--3-3-------5--5-5-------7--7-7-------7--7----5-----------------------|

Guitar 2: Play 2 times

e|------------------------------------------------------------------------|
B|------------------------------------------------------------------------|
G|------------------------------------------------------------------------|
D|--5-3-2--------5-3-2--------5-3-2-------------2-------------------------|
A|---------------------5-3-------------------3----5-----------------------|
D|------------------------------------------------------------------------|

VERSE

Guitar 1:

                                     XXXXXX XXXXXXXX XXXXXXXXXXXX
e|------------------------------------------------------------------------|
B|------------------------------------------------------------------------|
G|--------------5-------------5-----------------------------------5-------|
D|-3------------5-5-7---------5-5-3--333333-55555555-777777777777-5--5-3--|
A|-3------------3-5-7---------3-5-3--333333-55555555-777777777777-3--5-3--|
D|-3--------------5-7-----------5-3--333333-55555555-777777777777----5-3--|

Guitar 2:

e|------------------------------------------------------------------------|
B|------------------------------------------------------------------------|
G|-55555555555555555555555555555555-------------------------------9-7-5---|
D|------------------------------------------------------------------------|
A|----------------------------------------------------------------7-5-3---|
D|------------------------------------------------------------------------|


REFRAIN

Guitar 1:

                                     XXXXXX XXXXXXXX XXXXXXXXXXXX
e|------------------------------------------------------------------------|
B|------------------------------------------------------------------------|
G|--------------5-------------5-------------------------------------------|
D|--------------5-5-7---------5-5-3--333333-77777777-3333333333333--------|
A|--------------3-5-7---------3-5-3--333333-77777777-3333333333333--------|
D|----------------5-7-----------5-3--333333-77777777-3333333333333--------|

Guitar 2:

e|------------------------------------------------------------------------|
B|------------------------------------------------------------------------|
G|-5555555555555555555555555555555555555554444444445555555555555----------|
D|------------------------------------------------------------------------|
A|------------------------------------------------------------------------|
D|------------------------------------------------------------------------|


CHORUS

Guitar 1:

e|------------------------------------------------------------------------|
B|------------------------------------------------------------------------|
G|-55555555---------------------------------------------------------------|
D|-55555555-55555555-77777777-33333333--77777777-55555555-333333333-------|
A|-33333333-55555555-77777777-33333333--77777777-55555555-333333333-------|
D|----------55555555-77777777-33333333--77777777-55555555-333333333-------|

Guitar 2:

e|------------------------------------------------------------------------|
B|-13x32--10x32--13x16--12x16--13x16--------------------------------------|
G|------------------------------------------------------------------------|
D|------------------------------------------------------------------------|
A|------------------------------------------------------------------------|
D|------------------------------------------------------------------------|

PLAY INTRO AGAIN

then

VERSE 2

Guitar 1:

                                     XXXXXX XXXXXXXX XXXXXXXXXXXX
e|------------------------------------------------------------------------|
B|------------------------------------------------------------------------|
G|--------------5-------------5-----------------------------------5-------|
D|-3------------5-5-7---------5-5-3--333333-55555555-777777777777-5--5-3--|
A|-3------------3-5-7---------3-5-3--333333-55555555-777777777777-3--5-3--|
D|-3--------------5-7-----------5-3--333333-55555555-777777777777----5-3--|

Guitar 2:


e|------------------------------------------------------------------------|
B|------------------------------------------------------------------------|
G|-555555555555555555555555-----------------------------------------------|
D|------------------------------------------------------------------------|
A|------------------------------------------------------------------------|
D|------------------------------------------------------------------------|

Guitar 3:

e|------------------------------------15----------------------15----------|
B|---------------------------12-13-12----13-12-------12-13-12----13-12-13-|
G|---------------------------------------------12-------------------------|
D|------------------------------------------------------------------------|
A|------------------------------------------------------------------------|
D|------------------------------------------------------------------------|

Guitar 1:

   XXXXXXXXXXXX
e|------------------------------------------------------------------------|
B|------------------------------------------------------------------------|
G|------------------------5-----------------------------------------------|
D|-777777777777-----------5--5-7------------------------------------------|
A|-777777777777-----------3--5-7------------------------------------------|
D|-777777777777--------------5-7------------------------------------------|

Guitar 3:

e|------------------------------------12----------------------------------|
B|-12-13-12-13-13-12-13---12-13-12-15-------------------------------------|
G|------------------------------------------------------------------------|
D|------------------------------------------------------------------------|
A|------------------------------------------------------------------------|
D|------------------------------------------------------------------------|


REFRAIN 2


Guitar 1:

                            XXXXXX                   XXXXXXXX 
e|------------------------------------------------------------------------|
B|------------------------------------------------------------------------|
G|---------5---------5----------------------------------------------------|
D|---------5-5-7-----5-5-3--333333-------------------55555555-------------|
A|---------3-5-7-----3-5-3--333333-------------------55555555-------------|
D|-----------5-7-------5-3--333333-------------------55555555-------------|

Guitar 2:

e|------------------------------------------------------------------------|
B|------------------------------------------------------------------------|
G|--------------------------5555555555555555---------4444444444444444-----|
D|------------------------------------------------------------------------|
A|------------------------------------------------------------------------|
D|------------------------------------------------------------------------|

Guitar 3:

e|------------------------------------------------------------15----------|
B|---------------------------12-13-12-13-13-12-------12-13-12----13-12-13-|
G|---------------------------------------------12-------------------------|
D|------------------------------------------------------------------------|
A|------------------------------------------------------------------------|
D|------------------------------------------------------------------------|

Guitar 1:

   XXXXXXXXXXXX
e|------------------------------------------------------------------------|
B|------------------------------------------------------------------------|
G|------------------------------------------------------------------------|
D|-3333333333333----------------------------------------------------------|
A|-3333333333333----------------------------------------------------------|
D|-3333333333333----------------------------------------------------------|

Guitar 2:

e|------------------------------------------------------------------------|
B|------------------------------------------------------------------------|
G|-5555555555555555-------------------------------------------------------|
D|------------------------------------------------------------------------|
A|------------------------------------------------------------------------|
D|------------------------------------------------------------------------|

Guitar 3:

e|------------------------------------------------------------------------|
B|-12-13-12-13-13-12-13---12-13-12-13-------------------------------------|
G|------------------------------------------------------------------------|
D|------------------------------------------------------------------------|
A|------------------------------------------------------------------------|
D|------------------------------------------------------------------------|


CHORUS

Guitar 1:

e|------------------------------------------------------------------------|
B|------------------------------------------------------------------------|
G|-55555555---------------------------------------------------------------|
D|-55555555-55555555-77777777-33333333-77777777-55555555-33333333333333333|
A|-33333333-55555555-77777777-33333333-77777777-55555555-33333333333333333|
D|----------55555555-77777777-33333333-77777777-55555555-33333333333333333|

Guitar 2:

e|------------------------------------------------------------------------|
B|-13x32--10x32--13x16--12x16--13x16--------------------------------------|
G|------------------------------------------------------------------------|
D|------------------------------------------------------------------------|
A|------------------------------------------------------------------------|
D|------------------------------------------------------------------------|

Guitar 1:

e|------------------------------------------------------------------------|
B|------------------------------------------------------------------------|
G|-55555555---------------------------------------------------------------|
D|-55555555-55555555-77777777-33333333--77777777-55555555-333333333-------|
A|-33333333-55555555-77777777-33333333--77777777-55555555-333333333-------|
D|----------55555555-77777777-33333333--77777777-55555555-333333333-------|

Guitar 2:

e|------------------------------------------------------------------------|
B|-13x32--10x32--13x16--12x16--13x16--------------------------------------|
G|------------------------------------------------------------------------|
D|------------------------------------------------------------------------|
A|------------------------------------------------------------------------|
D|------------------------------------------------------------------------|


BRIDGE


Guitar 1:

e|------------------------------------------------------------------------|
B|------------------------------------------------------------------------|
G|-------------------55555555----------------------------5-5--------------|
D|-77777777-33333333-55555555-55555555-77777777-33333333-5-5-5------------|
A|-77777777-33333333-33333333-55555555-77777777-33333333-3-3-5------------|
D|-77777777-33333333----------55555555-77777777-33333333-----5------------|

Guitar 2:

e|------------------------------------------------------------------------|
B|------------------------------------------------------------------------|
G|-------------------------------------------------------10-9-7-7-7-9-7---|
D|------------------------------------------------------------------------|
A|------------------------------------------------------------------------|
D|------------------------------------------------------------------------|

Guitar 3:

e|-------16-------16------------------------------------------------------|
B|-13-14----13-14----13-14-13-14-13-14-14-14-13---------------------------|x3
G|----------------------------------------------13------------------------|
D|------------------------------------------------------------------------|
A|------------------------------------------------------------------------|
D|------------------------------------------------------------------------|


[Solo]

Guitar 1:

e|------------------------------------------------------------------------|
B|------------------------------------------------------------------------|
G|------------------------------------------------13-13-13----------------|
D|-11-11--11-11-----10-10--10-----8-10-11------------------10-10-10-11----|
A|--------------11------------11----------11-9-8--------------------------|
D|------------------------------------------------------------------------|

Guitar 2:

e|------------------------------------------------------------------------|
B|------------------------------------------------------------------------|
G|-66666666---------------------------------------------------------------|
D|-66666666-66666666-88888888-44444444-88888888---------------------------|
A|-44444444-66666666-88888888-44444444-88888888---------------------------|
D|----------66666666-88888888-44444444-88888888---------------------------|

Guitar 1:

e|------------------------------------------------------------------------|
B|------------------------------------------------------------------------|
G|-12-12-12-------------12-------12-------12-------12-14-16-17------------|
D|----------9-9-9-10-----9-10-----9-10-----9-10---------------------------|
A|------------------------------------------------------------------------|
D|------------------------------------------------------------------------|

Guitar 2:

e|------------------------------------------------------------------------|
B|------------------------------------------------------------------------|
G|------------------------------------------------------------------------|
D|-55555555-33333333------------------------------------------------------|
A|-55555555-33333333------------------------------------------------------|
D|-55555555-33333333------------------------------------------------------|


CHORUS

Guitar 1:

e|------------------------------------------------------------------------|
B|------------------------------------------------------------------------|
G|------------------------------------------------------------------------|
D|----------55555555-77777777-33333333-77777777-55555555-33333333333333333|
A|----------55555555-77777777-33333333-77777777-55555555-33333333333333333|
D|----------55555555-77777777-33333333-77777777-55555555-33333333333333333|

Guitar 2:

e|------------------------------------------------------------------------|
B|----------13x16--10x32--13x16--12x16--13x16-----------------------------|
G|------------------------------------------------------------------------|
D|------------------------------------------------------------------------|
A|------------------------------------------------------------------------|
D|------------------------------------------------------------------------|


Guitar 1:

e|------------------------------------------------------------------------|
B|------------------------------------------------------------------------|
G|-55555555---------------------------------------------------------------|
D|-55555555-55555555-77777777-33333333--77777777-55555555-333333333-------|
A|-33333333-55555555-77777777-33333333--77777777-55555555-333333333-------|
D|----------55555555-77777777-33333333--77777777-55555555-333333333-------|

Guitar 2:

e|------------------------------------------------------------------------|
B|-13x32--10x32--13x16--12x16--13x16--------------------------------------|
G|------------------------------------------------------------------------|
D|------------------------------------------------------------------------|
A|------------------------------------------------------------------------|
D|------------------------------------------------------------------------|




Enddd. :>
comments
We did not receive enough feedback on this tab! Please rate:
print report bad tab
1 2 3 4 5
1 comment total.
0 reply
PunkRocks13 wrote on June 3 2011, 08:12 am

This is realy well done, but the song is a half step higher I think..

I want to post or [tab]
guest
You may want to rate the tab now too:
select rating
Please do not post tabs as comments. Select "correction" instead!