Oops, an error
Loading. Please wait.

Break Your Little Heart Tab

ver7
ver7
More versions @911Tabs.com
643 views 1 this week
no commentswrite comment
1 2 3 4 5
please rate
Autoscroll
+/-
esc
set tempo
stop
Contributor
Difficulty
Tuning
novice
D A D G B E
WARNING: You are trying to view
                                    content from Ultimate-Guitar.com
                                    in an unauthorized application,
                                    which is prohibited.

                                    Please use an official Ultimate
                                    Guitar Tabs application for iPhone,
                                    iPad or Android to access legitimate
                                    chords, guitar, bass, and drum tabs
                                    from Ultimate-Guitar.com database.

                                    Type "ultimate guitar tabs" in Apple
                                    App Store's or Android Market's
                                    search to find the application.
Song: Break Your Little Heart
Artist: All Time Low

Tuning: Drop D

     
e|-H-V-----|-----P---------|----P-----------|----P---------|--------------|
B|-H-V-----|-----P---------|----P-----------|----P---------|--------------|
G|-H-V-----|-----P---------|----P-----------|----P---------|--------------|
D|-H-V-11/-|--4--P-6p4--3--|-6--P-6-4-3-----|-8--P-6p4--3--|-8------------|
A|-H-V-11/-|--4--P---------|-6--P-------6-4-|-8--P---------|-8------8--6--|
D|-H-V-11/-|--4--P---------|-6--P-----------|-8--P---------|-8--8-x-------|

e|-P------------|----P----------|----P---------|----------------|
B|-P------------|----P----------|----P---------|----------------|
G|-P------------|----P----------|----P---------|---------10--8--|
D|-P-4--6p4--3--|-6--P-6-4-3----|-8--P-6p4--3--|-8-------x---x--|
A|-P-4----------|-6--P------6-4-|-8--P---------|-8-------8---6--|
D|-P-4----------|-6--P----------|-8--P---------|-8--8-x---------|


                              
e|----------|----------------|-----------------|-----------------|
B|----------|----------------|-----------------|-----------------|
G|----6-----|----------------|-----------------|-----------------|
D|----x-x32-|-4--4-4-4-4-4-4-|-6-6-6-6-6-6-6-6-|-8-8-8-8-8-8-8-8-|
A|----4-----|-4—-4-4-4-4-4-4-|-6-6-6-6-6-6-6-6-|-8-8-8-8-8-8-8-8-|
D|----------|-4--4-4-4-4-4-4-|-6-6-6-6-6-6-6-6-|-8-8-8-8-8-8-8-8-|
                 P.M.   P.M.    P.M.    P.M.    P.M.    P.M.


e|----------------|
B|----------------|
G|---------10--8--|
D|---------x---x--|
A|-8-8-8-8-8---6--|
D|-8-8-8-8--------|
    P.M.


e|----------|------|-------V-|
B|----------|------|-------V-|
G|----6-----|-5----|-6-----V-|
D|----x-x40-|-x-x8-|-x-x13-V-|
A|----4-----|-3----|-4-----V-|
D|----------|------|-------V-|


e|-------------------------------------------------|
B|-14-14-14-14-14-14-14-14-14-14-14-14-14-14-14-14-|
G|-6-----6-----6-----6-----6-----6-----6-----6-----|
D|-6-----6-----6-----6-----6-----6-----6-----6-----|
A|-4-----4-----4-----4-----4-----4-----4-----4-----|
D|-------------------------------------------------|

e|-------------------------------------------------|
B|-13-13-13-13-13-13-13-13-13-13-13-13-13-13-13-13-|
G|-------------------------------------------------|
D|-6-----6-----6-----6-----6-----6-----6-----6-----|
A|-6-----6-----6-----6-----6-----6-----6-----6-----|
D|-6-----6-----6-----6-----6-----6-----6-----6-----|

e|-------------------------------------------------|
B|-14-14-14-14-14-14-14-14-14-14-14-14-14-14-14-14-|
G|-------------------------------------------------|
D|-8-----8-----8-----8-----8-----8-----8-----8-----|
A|-8-----8-----8-----8-----8-----8-----8-----8-----|
D|-8-----8-----8-----8-----8-----8-----8-----8-----|


e|-------------------------------------------------|
B|-------------------------------------------------|
G|-13-13-13-13-13-13-13-13-13-13-13-13-13-13-13-13-|
D|-4-----4-----4-----4-----4-----4-----4-----4-----|
A|-4-----4-----4-----4-----4-----4-----4-----4-----|
D|-4-----4-----4-----4-----4-----4-----4-----4-----|

e|-------------------------------------------------|
B|-14-14-14-14-14-14-14-14-14-14-14-14-14-14-14-14-|
G|-------------------------------------------------|
D|-8-----8-----8-----8-----8-----8-----8-----8-----|
A|-8-----8-----8-----8-----8-----8-----8-----8-----|
D|-8-----8-----8-----8-----8-----8-----8-----8-----|

e|-------------------------------------------------|
B|-13-13-13-13-13-13-13-13-13-13-13-13-13-13-13-13-|
G|-------------------------------------------------|
D|-6-----6-----6-----6-----6-----6-----6-----6-----|
A|-6-----6-----6-----6-----6-----6-----6-----6-----|
D|-6-----6-----6-----6-----6-----6-----6-----6-----|

e|-------------------------------------------------|
B|-11-11-11-11-11-11-11-11-11-11-11-11-11-11-11-11-|
G|-------------------------------------------------|
D|-4-----4-----4-----4-----4-----4-----4-----4-----|
A|-4-----4-----4-----4-----4-----4-----4-----4-----|
D|-4-----4-----4-----4-----4-----4-----4-----4-----|

e|-----V-V-V--|
B|-11--V-V-V--|
G|-----V-V-V--|  
D|-4---V-V-V--|
A|-4---V-V-V--|
D|-4---V-V-V--|


e|-----P---------|----P-----------|----P---------|--------------|
B|-----P---------|----P-----------|----P---------|--------------|
G|-----P---------|----P-----------|----P---------|--------------|
D|--4--P-6p4--3--|-6--P-6-4-3-----|-8--P-6p4--3--|-8------------|
A|--4--P---------|-6--P-------6-4-|-8--P---------|-8------8--6--|
D|--4--P---------|-6--P-----------|-8--P---------|-8--8-x-------|

e|-P------------|----P----------|----P---------|----------------|
B|-P------------|----P----------|----P---------|----------------|
G|-P------------|----P----------|----P---------|---------10--8--|
D|-P-4--6p4--3--|-6--P-6-4-3----|-8--P-6p4--3--|-8-------x---x--|
A|-P-4----------|-6--P------6-4-|-8--P---------|-8-------8---6--|
D|-P-4----------|-6--P----------|-8--P---------|-8--8-x---------|



e|-----------|
B|-----------|
G|----6------|
D|----x-x32--|
A|----4------|
D|-----------|


e|-P----------16----------|-P----------16----------|
B|-P-13-14-13----14-13----|-P-13-14-13----14-13-14-|
G|-P-------------------13-|-P----------------------|
D|-P----------------------|-P----------------------|
A|-P----------------------|-P----------------------|
D|-P----------------------|-P----------------------|

e|-P-----------------------|-P----------13-16-|
B|-P-13-14-13-14-14-13-14--|-P-13-14-13-------|
G|-P-----------------------|-P----------------|
D|-P-----------------------|-P----------------|
A|-P-----------------------|-P----------------|
D|-P-----------------------|-P----------------|


e|--------P-------|-P-------------|--------P-------|-P-------------|
B|--------P-------|-P-------------|--------P-------|-P-------------|
G|--------P-------|-P-------6-----|--------P-------|-P-------6-----|
D|-4--x-x-P-x-x-x-|-P-x-x-x-6--6--|-8--x-x-P-x-x-x-|-P-x-x-x-6--6--|
A|-4--x-x-P-x-x-x-|-P-x-x-x-4--6--|-8--x-x-P-x-x-x-|-P-x-x-x-4--6--|
D|-4--x-x-P-x-x-x-|-P-x-x-x----6--|-8--x-x-P-x-x-x-|-P-x-x-x----6--|



e|-P----------16----------|-P----------16----------|
B|-P-13-14-13----14-13----|-P-13-14-13----14-13-14-|
G|-P-------------------13-|-P----------------------|
D|-P----------------------|-P----------------------|
A|-P----------------------|-P----------------------|
D|-P----------------------|-P----------------------|

e|-P-----------------------|------------------V----|
B|-P-13-14-13-14-14-13-14--|--13-14-14-13-14--V----|
G|-P-----------------------|------------------V----|
D|-P-----------------------|------------------V----|
A|-P-----------------------|------------------V----|
D|-P-----------------------|------------------V----|



e|-------------------------------------------------|
B|-14-14-14-14-14-14-14-14-14-14-14-14-14-14-14-14-|
G|-6-----6-----6-----6-----6-----6-----6-----6-----|
D|-6-----6-----6-----6-----6-----6-----6-----6-----|
A|-4-----4-----4-----4-----4-----4-----4-----4-----|
D|-------------------------------------------------|

e|-------------------------------------------------|
B|-13-13-13-13-13-13-13-13-13-13-13-13-13-13-13-13-|
G|-------------------------------------------------|
D|-6-----6-----6-----6-----6-----6-----6-----6-----|
A|-6-----6-----6-----6-----6-----6-----6-----6-----|
D|-6-----6-----6-----6-----6-----6-----6-----6-----|

e|-------------------------------------------------|
B|-14-14-14-14-14-14-14-14-14-14-14-14-14-14-14-14-|
G|-------------------------------------------------|
D|-8-----8-----8-----8-----8-----8-----8-----8-----|
A|-8-----8-----8-----8-----8-----8-----8-----8-----|
D|-8-----8-----8-----8-----8-----8-----8-----8-----|


e|-------------------------------------------------|
B|-------------------------------------------------|
G|-13-13-13-13-13-13-13-13-13-13-13-13-13-13-13-13-|
D|-4-----4-----4-----4-----4-----4-----4-----4-----|
A|-4-----4-----4-----4-----4-----4-----4-----4-----|
D|-4-----4-----4-----4-----4-----4-----4-----4-----|

e|-------------------------------------------------|
B|-------------------------------------------------|
G|-13-13-13-13-13-13-13-13-13-13-13-13-13-13-13-13-|
D|-4-----4-----4-----4-----4-----4-----4-----4-----|
A|-4-----4-----4-----4-----4-----4-----4-----4-----|
D|-4-----4-----4-----4-----4-----4-----4-----4-----|

e|-------------------------------------------------|
B|-13-13-13-13-13-13-13-13-13-13-13-13-13-13-13-13-|
G|-------------------------------------------------|
D|-6-----6-----6-----6-----6-----6-----6-----6-----|
A|-6-----6-----6-----6-----6-----6-----6-----6-----|
D|-6-----6-----6-----6-----6-----6-----6-----6-----|

e|-------------------------------------------------|
B|-11-11-11-11-11-11-11-11-11-11-11-11-11-11-11-11-|
G|-------------------------------------------------|
D|-4-----4-----4-----4-----4-----4-----4-----4-----|
A|-4-----4-----4-----4-----4-----4-----4-----4-----|
D|-4-----4-----4-----4-----4-----4-----4-----4-----|

e|-------------------------------------------------|
B|-11-11-11-11-11-11-11-11-11-11-11-11-11-11-11-11-|
G|-------------------------------------------------|
D|-4-----4-----4-----4-----4-----4-----4-----4-----|
A|-4-----4-----4-----4-----4-----4-----4-----4-----|
D|-4-----4-----4-----4-----4-----4-----4-----4-----|

e|-------------------------------------------------|
B|-14-14-14-14-14-14-14-14-14-14-14-14-14-14-14-14-|
G|-6-----6-----6-----6-----6-----6-----6-----6-----|
D|-6-----6-----6-----6-----6-----6-----6-----6-----|
A|-4-----4-----4-----4-----4-----4-----4-----4-----|
D|-------------------------------------------------|

e|-------------------------------------------------|
B|-13-13-13-13-13-13-13-13-13-13-13-13-13-13-13-13-|
G|-------------------------------------------------|
D|-6-----6-----6-----6-----6-----6-----6-----6-----|
A|-6-----6-----6-----6-----6-----6-----6-----6-----|
D|-6-----6-----6-----6-----6-----6-----6-----6-----|

e|-------------------------------------------------|
B|-14-14-14-14-14-14-14-14-14-14-14-14-14-14-14-14-|
G|-------------------------------------------------|
D|-8-----8-----8-----8-----8-----8-----8-----8-----|
A|-8-----8-----8-----8-----8-----8-----8-----8-----|
D|-8-----8-----8-----8-----8-----8-----8-----8-----|

e|-------------------------------------------------|
B|-------------------------------------------------|
G|-13-13-13-13-13-13-13-13-13-13-13-13-13-13-13-13-|
D|-4-----4-----4-----4-----4-----4-----4-----4-----|
A|-4-----4-----4-----4-----4-----4-----4-----4-----|
D|-4-----4-----4-----4-----4-----4-----4-----4-----|

e|-------------------------------------------------|
B|-------------------------------------------------|
G|-13-13-13-13-13-13-13-13-13-13-13-13-13-13-13-13-|
D|-4-----4-----4-----4-----4-----4-----4-----4-----|
A|-4-----4-----4-----4-----4-----4-----4-----4-----|
D|-4-----4-----4-----4-----4-----4-----4-----4-----|

e|-------------------------------------------------|
B|-13-13-13-13-13-13-13-13-13-13-13-13-13-13-13-13-|
G|-------------------------------------------------|
D|-6-----6-----6-----6-----6-----6-----6-----6-----|
A|-6-----6-----6-----6-----6-----6-----6-----6-----|
D|-6-----6-----6-----6-----6-----6-----6-----6-----|

e|-------------------------------------------------|
B|-11-11-11-11-11-11-11-11-11-11-11-11-11-11-11-11-|
G|-------------------------------------------------|
D|-4-----4-----4-----4-----4-----4-----4-----4-----|
A|-4-----4-----4-----4-----4-----4-----4-----4-----|
D|-4-----4-----4-----4-----4-----4-----4-----4-----|

e|-----V-V-V--|
B|-11--V-V-V--|
G|-----V-V-V--|  
D|-4---V-V-V--|
A|-4---V-V-V--|
D|-4---V-V-V--|




e|-P-------16-------16-------|-P-------------------------|
B|-P-13-14----13-14----13-14-|-P-14-13-14-13-14-13----13-|
G|-P-------------------------|-P-------------------13----|
D|-P-------------------------|-P-------------------------|
A|-P-------------------------|-P-------------------------|
D|-P-------------------------|-P-------------------------|


e|-----16-------16-------|-------------------------|
B|--14----13-14----13-14-|-14-13-14-13-14-13----13-|
G|-----------------------|-------------------13----|
D|-----------------------|-------------------------|
A|-----------------------|-------------------------|
D|-----------------------|-------------------------|

e|-----16-------16-------|-----------------------|
B|--14----13-14----13-14-|-14-13-14-13-14-13-----|
G|-----------------------|-------------------13--|
D|-----------------------|-----------------------|
A|-----------------------|-----------------------|
D|-----------------------|-----------------------|


e|---------------|--------------|---------------------|----------------|
B|---------------|--------------|---------------------|----------------|
G|-11.--10.------|--------------|---------------------|----------------|
D|-----------13--|----13-15-13--|-11--11--11-11----10-|---10—10-10-----|
A|---------------|--------------|---------------11----|------------11--|
D|---------------|--------------|---------------------|----------------|



e|------------|------------|-------------------------|
B|------------|------------|-------------------------|
G|------------|------------|-13-13-13----------------|
D|-8.—10.-11--|------------|----------10-10-10-11-11-|
A|------------|-11----9-8--|-------------------------|
D|------------|------------|-------------------------|

e|-------------------------|-------------------------|------------------P-|
B|-------------------------|-------------------------|-------11-13-14.--P-|
G|-13-13-13----------------|-13-------13-------13----|----13------------P-|
D|----------10-10-10-11-11-|----10-11----10-11----10-|-11---------------P-|
A|-------------------------|-------------------------|------------------P-|
D|-------------------------|-------------------------|------------------P-|

e|-H-V-----|
B|-H-V-----|
G|-H-V-----|
D|-H-V-----|
A|-H-V-8/--|
D|-H-V-8/--|


e|-------------------------------------------------|
B|-13-13-13-13-13-13-13-13-13-13-13-13-13-13-13-13-|
G|-------------------------------------------------|
D|-6-----6-----6-----6-----6-----6-----6-----6-----|
A|-6-----6-----6-----6-----6-----6-----6-----6-----|
D|-6-----6-----6-----6-----6-----6-----6-----6-----|


e|-------------------------------------------------|
B|-14-14-14-14-14-14-14-14-14-14-14-14-14-14-14-14-|
G|-------------------------------------------------|
D|-8-----8-----8-----8-----8-----8-----8-----8-----|
A|-8-----8-----8-----8-----8-----8-----8-----8-----|
D|-8-----8-----8-----8-----8-----8-----8-----8-----|


e|-------------------------------------------------|
B|-------------------------------------------------|
G|-13-13-13-13-13-13-13-13-13-13-13-13-13-13-13-13-|
D|-4-----4-----4-----4-----4-----4-----4-----4-----|
A|-4-----4-----4-----4-----4-----4-----4-----4-----|
D|-4-----4-----4-----4-----4-----4-----4-----4-----|


e|-------------------------------------------------|
B|-14-14-14-14-14-14-14-14-14-14-14-14-14-14-14-14-|
G|-------------------------------------------------|
D|-8-----8-----8-----8-----8-----8-----8-----8-----|
A|-8-----8-----8-----8-----8-----8-----8-----8-----|
D|-8-----8-----8-----8-----8-----8-----8-----8-----|

e|-------------------------------------------------|
B|-13-13-13-13-13-13-13-13-13-13-13-13-13-13-13-13-|
G|-------------------------------------------------|
D|-6-----6-----6-----6-----6-----6-----6-----6-----|
A|-6-----6-----6-----6-----6-----6-----6-----6-----|
D|-6-----6-----6-----6-----6-----6-----6-----6-----|


e|-------------------------------------------------|
B|-11-11-11-11-11-11-11-11-11-11-11-11-11-11-11-11-|
G|-------------------------------------------------|
D|-4-----4-----4-----4-----4-----4-----4-----4-----|
A|-4-----4-----4-----4-----4-----4-----4-----4-----|
D|-4-----4-----4-----4-----4-----4-----4-----4-----|

e|-------------------------------------------------|
B|-11-11-11-11-11-11-11-11-11-11-11-11-11-11-11-11-|
G|-------------------------------------------------|
D|-4-----4-----4-----4-----4-----4-----4-----4-----|
A|-4-----4-----4-----4-----4-----4-----4-----4-----|
D|-4-----4-----4-----4-----4-----4-----4-----4-----|

e|-------------------------------------------------|
B|-14-14-14-14-14-14-14-14-14-14-14-14-14-14-14-14-|
G|-6-----6-----6-----6-----6-----6-----6-----6-----|
D|-6-----6-----6-----6-----6-----6-----6-----6-----|
A|-4-----4-----4-----4-----4-----4-----4-----4-----|
D|-------------------------------------------------|

e|-------------------------------------------------|
B|-13-13-13-13-13-13-13-13-13-13-13-13-13-13-13-13-|
G|-------------------------------------------------|
D|-6-----6-----6-----6-----6-----6-----6-----6-----|
A|-6-----6-----6-----6-----6-----6-----6-----6-----|
D|-6-----6-----6-----6-----6-----6-----6-----6-----|

e|-------------------------------------------------|
B|-14-14-14-14-14-14-14-14-14-14-14-14-14-14-14-14-|
G|-------------------------------------------------|
D|-8-----8-----8-----8-----8-----8-----8-----8-----|
A|-8-----8-----8-----8-----8-----8-----8-----8-----|
D|-8-----8-----8-----8-----8-----8-----8-----8-----|

e|-------------------------------------------------|
B|-------------------------------------------------|
G|-13-13-13-13-13-13-13-13-13-13-13-13-13-13-13-13-|
D|-4-----4-----4-----4-----4-----4-----4-----4-----|
A|-4-----4-----4-----4-----4-----4-----4-----4-----|
D|-4-----4-----4-----4-----4-----4-----4-----4-----|

e|-------------------------------------------------|
B|-14-14-14-14-14-14-14-14-14-14-14-14-14-14-14-14-|
G|-------------------------------------------------|
D|-8-----8-----8-----8-----8-----8-----8-----8-----|
A|-8-----8-----8-----8-----8-----8-----8-----8-----|
D|-8-----8-----8-----8-----8-----8-----8-----8-----|

e|-------------------------------------------------|
B|-13-13-13-13-13-13-13-13-13-13-13-13-13-13-13-13-|
G|-------------------------------------------------|
D|-6-----6-----6-----6-----6-----6-----6-----6-----|
A|-6-----6-----6-----6-----6-----6-----6-----6-----|
D|-6-----6-----6-----6-----6-----6-----6-----6-----|

e|-------------------------------------------------|
B|-11-11-11-11-11-11-11-11-11-11-11-11-11-11-11-11-|
G|-------------------------------------------------|
D|-4-----4-----4-----4-----4-----4-----4-----4-----|
A|-4-----4-----4-----4-----4-----4-----4-----4-----|
D|-4-----4-----4-----4-----4-----4-----4-----4-----|

e|----V-H-|
B|----V-H-|
G|----V-H-|
D|-4--V-H-|
A|-4--V-H-|
D|-4--V-H-|
                




P=1/8 break
V=1/4 break
H=1/2 break
.=Note extended for halftone
comments
We did not receive enough feedback on this tab! Please rate:
print report bad tab
1 2 3 4 5
I want to post or [tab]
guest
You may want to rate the tab now too:
select rating
Please do not post tabs as comments. Select "correction" instead!