Oops, an error
Loading. Please wait.

Coffee Shop Soundtrack Bass Tab

ver1
ver1

Whole song

Interactive

More versions @911Tabs.com
13,093 views 1 this week
no commentswrite comment
1 2 3 4 5
accurate
x 4
Autoscroll
+/-
esc
set tempo
stop
Contributor
Hey! There's an official Ultimate Guitar app which is ideal
for learning songs when you're away from computer. Get the app
WARNING: You are trying to view
                                    content from Ultimate-Guitar.com
                                    in an unauthorized application,
                                    which is prohibited.

                                    Please use an official Ultimate
                                    Guitar Tabs application for iPhone,
                                    iPad or Android to access legitimate
                                    chords, guitar, bass, and drum tabs
                                    from Ultimate-Guitar.com database.

                                    Type "ultimate guitar tabs" in Apple
                                    App Store's or Android Market's
                                    search to find the application.
Coffee Shop Soundtrack                              


                                                                    All 
Time Low
Bass



     W                   W                   W                 
G||-------------------|-------------------|-------------------|
D||-------------------|-------------------|-------------------|
A||-------------------|-------------------|-------------------|
E||-------------------|-------------------|-------------------|


  W                   E  E  E  Q    E  Q       E  E  Q    E  E  E  E   
-------------------|------------------------|-------------------------|
-------------------|------------------------|-------------------------|
-------------------|--4--4--4--4----4-------|-------------------------|
-------------------|-------------------5----|--L--5--5----5--5--5--5--|


  E  E  E  Q    E  Q       E  E  Q    E  E  E  E     Q    Q    Q    Q     
------------------------|-------------------------|----------------------|
------------------------|-------------------------|----------------------|
--4--4--4--4----4-------|-------------------------|----------------------|
-------------------5----|--L--5--5----5--5--5--5--|--0----0----0----0----|


  Q    Q    Q    Q       Q    Q    Q    Q       Q    Q    Q    Q     
----------------------|----------------------|----------------------|
----------------------|----------------------|----------------------|
----------------------|--2----2----2----2----|--2----2----2----2----|
--0----0----0----0----|----------------------|----------------------|


  E  E  E  Q    E  Q       W                   E  E  E  Q    E  Q     
------------------------|-------------------|------------------------|
------------------------|-------------------|------------------------|
--4--4--4--4----4--7----|--L----------------|--4--4--4--4----4-------|
------------------------|-------------------|-------------------5----|


  E  E  Q    E  E  E  E     Q    Q    Q    Q       Q    Q    Q    Q     
-------------------------|----------------------|----------------------|
-------------------------|----------------------|----------------------|
-------------------------|----------------------|----------------------|
--L--5--5----5--5--5--5--|--0----0----0----0----|--0----0----0----0----|


  Q    Q    Q    Q       Q    Q    Q    Q       E  E  E  E  E  E  E  E   
----------------------|----------------------|--------------------------|
----------------------|----------------------|--------------------------|
--2----2----2----2----|--2----2----2----2----|--4--4--4--4--4--4--------|
----------------------|----------------------|--------------------5--5--|


  E  E  E  E  E  E  E  E     E  E  E  E  E  E  E  E   
--------------------------|--------------------------|
--------------------------|--------------------------|
--------------------------|--4--4--4--4--4--4--7--7--|
--5--5--5--5--5--5--5--5--|--------------------------|


  E  E  E  E  E  E  E  E     E  E  E  E  E  E  E  E   
--------------------------|--------------------------|
--------------------------|--------------------------|
--7--7--7--7--7--7--7--7--|--4--4--4--4--4--4--------|
--------------------------|--------------------5--5--|


  E  E  E  E  E  E  E  E     E  E  E  E  E  E  E  E     E  E  E  E  E  
E  Q     
--------------------------|--------------------------|-------------------------|
--------------------------|--------------------------|-----2--------4--2-------|
--------------------------|--7--7--7--7--7--7-----2--|--4-----4--2--------4----|
--5--5--5--5--5--5--5--5--|--------------------4-----|-------------------------|


  E  E  E  E  E  E  E  E     E  E  E  E  E  E  E  E   
--------------------------|--------------------------|
--------------------------|--------------------------|
--4--4--4--4--4--4--------|--------------------------|
--------------------5--5--|--5--5--5--5--5--5--5--5--|


  E  E  E  E  E  E  E  E     E  E  E  E  E  E  E  E   
--------------------------|--------------------------|
--------------------------|--------------------------|
--4--4--4--4--4--4--------|--------------------------|
--------------------0--0--|--0--0--0--0--0--0--0--0--|


  E  E  E  E  E  E  E  E     E  E  E  E  E  E  E  E   
--------------------------|--------------------------|
--------------------------|--------------------------|
--4--4--4--4--4--4--------|--------------------------|
--------------------5--5--|--5--5--5--5--5--5--5--5--|


  E  E  E  E  E  E  E  E     E  E  E  E  E  E  E  E     Q    Q    E  E  
E  E   
--------------------------|--------------------------|------------------------|
--------------------------|--------------------------|------------------------|
--4--4--4--4--4--4--------|--2--2--2--2--2--2--2--2--|------------------------|
--------------------0--2--|--------------------------|--0----0----0--0--0--0--|


  E  E  Q    E  E  E  E     Q    Q    E  E  E  E     E  E  Q    E  E  E  
E   
-------------------------|------------------------|-------------------------|
-------------------------|------------------------|-------------------------|
-------------------------|--0----0----0--0--0--0--|--L--0--0----0--0--0--0--|
--L--0--0----0--0--0--0--|------------------------|-------------------------|


  E  E  Q    E  E  Q       E  E  Q    E  E  Q       E  E  E  E  E  E  E  
E   
------------------------|------------------------|--------------------------|
------------------------|------------------------|--------------------------|
--4--4--4---------------|--2--2--2---------------|--0--0--0--0--0--0--0--0--|
-------------0--0--0----|-------------0--0--0----|--------------------------|


  E  E  E  E  E  E  E  E     Q    Q    E  E  E  E     E  E  Q    E  E  
E  E   
--------------------------|------------------------|-------------------------|
--------------------------|------------------------|-------------------------|
--0--0--0--0--0--0--0--0--|------------------------|-------------------------|
--------------------------|--0----0----0--0--0--0--|--L--0--0----0--0--0--0--|


  Q    Q    E  E  E  E     E  E  Q    E  E  E  E     E  E  Q    E  E  Q     
------------------------|-------------------------|------------------------|
------------------------|-------------------------|------------------------|
--0----0----0--0--0--0--|--L--0--0----0--0--0--0--|--4--4--4---------------|
------------------------|-------------------------|-------------0--0--0----|


  E  E  Q    E  E  Q       E  E  E  E  E  E  E  E     E  E  E  E  E  E  
E  E   
------------------------|--------------------------|--------------------------|
------------------------|--------------------------|--------------------------|
--2--2--2---------------|--0--0--0--0--0--0--0--0--|--0--0--0--0--0--0--0--0--|
-------------0--0--0----|--------------------------|--------------------------|


  E  E  E  Q    E  Q       Q    E  E  E  E  E  E     E  E  E  E  E  E  
E  E   
------------------------|-------------------------|--------------------------|
------------------------|-------------------------|--------------------------|
--4--4--4--4----4-------|-------------------------|--2--2--2--2--2--2--2--2--|
-------------------0----|--L----0--0--0--0--0--0--|--------------------------|


  E  E  E  E  E  E  E  E     E  E  E  E  E  E  E  E   
--------------------------|--------------------------|
--------------------------|--------------------------|
--2--2--2--2--2--2--2--2--|--4--4--4--4--4--4--0--0--|
--------------------------|--------------------------|


  E  E  E  E  E  E  E  E     E  E  E  E  E  E  E  E   
--------------------------|--------------------------|
--------------------------|--------------------------|
--0--0--0--0--0--0--0--0--|--2--2--2--2--2--2--2--2--|
--------------------------|--------------------------|


  E  E  E  E  E  E  E  E     E  E  E  E  E  E  E  E   
--------------------------|--------------------------|
--------------------------|--------------------------|
--2--2--2--2--2--2--2--2--|--0--0--0--0--0--0--0--0--|
--------------------------|--------------------------|


  E  E  E  E  E  E  E  E     E  E  E  E  E  E  E  E   
--------------------------|--------------------------|
--------------------------|--------------------------|
--2--2--2--2--2--2--2--2--|--3--3--3--3--3--3--3--3--|
--------------------------|--------------------------|


  E  E  E  E  E  E  E  E     Q    Q    E  E  E  E     E  E  Q    E  E  
E  E   
--------------------------|------------------------|-------------------------|
--------------------------|------------------------|-------------------------|
--4--4--4--4--4--4--4--4--|--7----7----7--7--7--7--|--L--7--7----7--7--7--7--|
--------------------------|------------------------|-------------------------|


  Q    Q    E  E  E  E     E  E  Q    H           Q    Q    E  E  E  E   
------------------------|----------------------|------------------------|
------------------------|----------------------|------------------------|
--2----2----2--2--2--2--|--L--2--2-------------|------------------------|
------------------------|----------------------|--0----0----0--0--0--0--|


  E  E  Q    E  E  E  E     Q    Q    E  E  E  E     E  E  Q    E  E  E  
E   
-------------------------|------------------------|-------------------------|
-------------------------|------------------------|-------------------------|
-------------------------|--0----0----0--0--0--0--|--L--0--0----0--0--0--0--|
--L--0--0----0--0--0--0--|------------------------|-------------------------|


  E  E  Q    E  E  Q       E  E  Q    E  E  Q       E  E  E  E  E  E  E  
E   
------------------------|------------------------|--------------------------|
------------------------|------------------------|--------------------------|
--4--4--4---------------|--2--2--2---------------|--0--0--0--0--0--0--0--0--|
-------------0--0--0----|-------------0--0--0----|--------------------------|


  E  E  E  E  E  E  E  E     Q    Q    E  E  E  E     E  E  Q    E  E  
E  E   
--------------------------|------------------------|-------------------------|
--------------------------|------------------------|-------------------------|
--0--0--0--0--0--0--0--0--|------------------------|-------------------------|
--------------------------|--0----0----0--0--0--0--|--L--0--0----0--0--0--0--|


  Q    Q    E  E  E  E     E  E  Q    E  E  E  E     E  E  Q    E  E  Q     
------------------------|-------------------------|------------------------|
------------------------|-------------------------|------------------------|
--0----0----0--0--0--0--|--L--0--0----0--0--0--0--|--4--4--4---------------|
------------------------|-------------------------|-------------0--0--0----|


  E  E  Q    E  E  Q       E  E  E  E  E  E  E  E     E  E  E  E  E  E  
E  E   
------------------------|--------------------------|--------------------------|
------------------------|--------------------------|--------------------------|
--2--2--2---------------|--0--0--0--0--0--0--0--0--|--0--0--0--0--0--0--0--0--|
-------------0--0--0----|--------------------------|--------------------------|


  Q    Q    Q    Q       Q    Q    Q    Q       Q    Q    Q    Q     
----------------------|----------------------|----------------------|
----------------------|----------------------|----------------------|
--4----4----4----4----|--3----3----3----3----|--2----2----2----2----|
----------------------|----------------------|----------------------|


  Q    Q    Q    Q       Q    Q    Q    Q       Q    Q    Q    Q     
----------------------|----------------------|----------------------|
----------------------|----------------------|----------------------|
--1----1----1----1----|--4----4----4----4----|--3----3----3----3----|
----------------------|----------------------|----------------------|


  Q    Q    Q    Q       Q    Q    Q    Q       Q    Q    Q    Q     
----------------------|----------------------|----------------------|
----------------------|----------------------|----------------------|
--0----0----0----0----|--0----0----0----0----|--4----4----4----4----|
----------------------|----------------------|----------------------|


  Q    Q    Q    Q       Q    Q    Q    Q       Q    Q    Q    Q     
----------------------|----------------------|----------------------|
----------------------|----------------------|----------------------|
--3----3----3----3----|--7----7----7----7----|--6----6----6----6----|
----------------------|----------------------|----------------------|


  Q    Q    Q    Q       Q    Q    Q    Q       E  E  E  E  E  E  E  E   
----------------------|----------------------|--------------------------|
----------------------|----------------------|--------------------------|
--4----4----4----4----|--3----3----3----3----|--0--0--0--0--0--0--0--0--|
----------------------|----------------------|--------------------------|


  E  E  E  E  E  E  E  E     E  E  H.              W                 
--------------------------|---------------------|-------------------|
--------------------------|---------------------|-------------------|
--0--0--0--0--0--0--0--0--|---------------------|-------------------|
--------------------------|--0--0---------------|-------------------|


  W                   W                   W                   W                 
-------------------|-------------------|-------------------|-------------------|
-------------------|-------------------|-------------------|-------------------|
-------------------|-------------------|-------------------|-------------------|
-------------------|-------------------|-------------------|-------------------|


  W                   H          H            E  E  H.            
-------------------|-----------------------|---------------------|
-------------------|-----------------------|---------------------|
-------------------|-----------------------|---------------------|
-------------------|-----------/12\--------|--0--0---------------|


  W                   E  E  H.              W                 
-------------------|---------------------|-------------------|
-------------------|---------------------|-------------------|
-------------------|--0--0---------------|-------------------|
-------------------|---------------------|-------------------|


  Q    Q    E  E  Q       Q    Q    E  E  Q       E  E  E  E  E  E  E  
E   
-----------------------|-----------------------|--------------------------|
-----------------------|-----------------------|--------------------------|
--4----4---------------|--2----2---------------|--0--0--0--0--0--0--0--0--|
------------0--0--0----|------------0--0--0----|--------------------------|


    E   E   E   E   E   E   E   E      E  E  Q    E  E  E  E   
------------------------------------|-------------------------|
------------------------------------|-------------------------|
--/12--12--12--12--12--12--12--12\--|-------------------------|
------------------------------------|--0--0--0----0--0--0--0--|


  E  E  Q    E  E  E  E     Q    Q    E  E  E  E     E  E  Q    E  E  E  
E   
-------------------------|------------------------|-------------------------|
-------------------------|------------------------|-------------------------|
-------------------------|--0----0----0--0--0--0--|--L--0--0----0--0--0--0--|
--L--0--0----0--0--0--0--|------------------------|-------------------------|


  Q    Q    E  E  E  E     E  E  Q    E  E  E  E     E  E  Q    E  E  E  
E   
------------------------|-------------------------|-------------------------|
------------------------|-------------------------|-------------------------|
--4----4----4--4--4--2--|--L--2--2----2--2--2--2--|--0--0--0----0--0--0--0--|
------------------------|-------------------------|-------------------------|


  E  E  E  E  E  E  E  E     Q    Q    E  E  E  E     E  E  Q    E  E  
E  E   
--------------------------|------------------------|-------------------------|
--------------------------|------------------------|-------------------------|
--0--0--0--0--0--0--0--0--|------------------------|-------------------------|
--------------------------|--0----0----0--0--0--0--|--L--0--0----0--0--0--0--|


  Q    Q    E  E  E  E     E  E  Q    E  E  E  E     E  E  Q    E  E  Q     
------------------------|-------------------------|------------------------|
------------------------|-------------------------|------------------------|
--0----0----0--0--0--0--|--L--0--0----0--0--0--0--|--4--4--4---------------|
------------------------|-------------------------|-------------0--0--0----|


             |----3----|                                             
  E  E  Q    Q    Q    Q       W                   W                 
----------------------------|-------------------|-------------------|
----------------------------|-------------------|-------------------|
--2--2--2-------------------|--0----------------|--L----------------|
-------------0----0----0----|-------------------|-------------------|


  W                   W                   W                  
-------------------|-------------------|-------------------||
-------------------|-------------------|-------------------||
--L----------------|--L----------------|--L----------------||
-------------------|-------------------|-------------------||




Duration Legend
---------------
W - whole
H - half
Q - quarter
E - 8th
S - 16th
T - 32nd
X - 64th
. - note dotted
|-n-|  - n-tuplets


Tablature Legend
----------------
L - tied note
x - dead note
g - grace note
(n) - ghost note
> - accentuded note
NH - natural harmonic
AH - artificial harmonic
TH - tapped harmonic
SH - semi harmonic
PH - pitch harmonic
h - hammer on
p - pull off
b - bend
br - bendRelease
pb - preBend
pbr - preBendRelease
brb - bendReleaseBend
\n/ - tremolo bar dip
\n - tremolo bar dive
-/n - tremolo bar Release up
/n\ - tremolo bar inverted dip
/n - tremolo bar return
-\n - tremolo bar Release down
S - shift slide
s - legato slide
/ -  slide into from below or out of upwards
\ -  slide into from above or out of downwards
~ - vibrato
W - wide vibrato
tr - trill
TP - tremolo picking
T - tapping
S - slap
P - pop
< - fade in
^ - brush up
v - brush down

comments
print report bad tab
I want to post or [tab]
guest
You may want to rate the tab now too:
select rating
Please do not post tabs as comments. Select "correction" instead!