Oops, an error
Loading. Please wait.

Coffee Shop Soundtrack Tab

ver3
ver3

Intro

Whole song

More versions @911Tabs.com
4,501 views 3 this week
2 commentsread comments
1 2 3 4 5
worth learning
x 2
Autoscroll
+/-
esc
set tempo
stop
Contributor
WARNING: You are trying to view
                                    content from Ultimate-Guitar.com
                                    in an unauthorized application,
                                    which is prohibited.

                                    Please use an official Ultimate
                                    Guitar Tabs application for iPhone,
                                    iPad or Android to access legitimate
                                    chords, guitar, bass, and drum tabs
                                    from Ultimate-Guitar.com database.

                                    Type "ultimate guitar tabs" in Apple
                                    App Store's or Android Market's
                                    search to find the application.
Hi, Here it is...I don't plan to waste your time with my life story.

All Time Low
Coffee Shop Soundtrack
Put Up Or Shut Up [EP]

Lead Guitar

     W                   W                   W                 
E||-------------------|-------------------|-------------------|
B||-------------------|-------------------|-------------------|
G||-------------------|-------------------|-------------------|
D||-------------------|-------------------|-------------------|
A||-------------------|-------------------|-------------------|
E||-------------------|-------------------|-------------------|


  H        H            E   E   E   Q     E  Q       E  E  Q    E  E  E  
E   
-----------0--------|-----------------------------|-------------------------|
-----------0--------|-----------------------------|-------------------------|
-----------0--------|--13--13--13--13----13--9----|--L--9--9----9--9--9--9--|
--------------------|---x---x---x---x-----x--x----|-----x--x----x--x--x--x--|
--------------------|--11--11--11--11----11--7----|--L--7--7----7--7--7--7--|
--------------------|-----------------------------|-------------------------|


   E   E   E   Q     E  Q       E  E  Q    E  E  E  E     Q    Q    Q    
Q     
-----------------------------|-------------------------|----------------------|
-----------------------------|-------------------------|----------------------|
--13--13--13--13----13--9----|--L--9--9----9--9--9--9--|--9----9----9----9----|
---x---x---x---x-----x--x----|-----x--x----x--x--x--x--|--x----x----x----x----|
--11--11--11--11----11--7----|--L--7--7----7--7--7--7--|--7----7----7----7----|
-----------------------------|-------------------------|----------------------|


  Q    Q    Q    Q        Q     Q     Q     Q        Q     Q     Q     
Q     
----------------------|--------------------------|--------------------------|

----------------------|--------------------------|--------------------------|
--9----9----9----9----|--11----11----11----11----|--11----11----11----11----|
--x----x----x----x----|---x-----x-----x-----x----|---x-----x-----x-----x----|
--7----7----7----7----|---9-----9-----9-----9----|---9-----9-----9-----9----|
----------------------|--------------------------|--------------------------|


   E   E   E   Q     E  Q       W                    E   E   E   Q     
E  Q     
-----------------------------|-------------------|-----------------------------|
-----------------------------|-------------------|-----------------------------|
--13--13--13--13----13--9----|--L----------------|--13--13--13--13----13--9----|
---x---x---x---x-----x--x----|-------------------|---x---x---x---x-----x--x----|
--11--11--11--11----11--7----|--L----------------|--11--11--11--11----11--7----|
-----------------------------|-------------------|-----------------------------|


  E  E  Q    E  E  E  E     Q    Q    Q    Q        Q     Q     Q     Q     
-------------------------|----------------------|--------------------------|
-------------------------|----------------------|--------------------------|
--L--9--9----9--9--9--9--|--9----9----9----9----|--11----11----11----11----|
-----x--x----x--x--x--x--|--x----x----x----x----|---x-----x-----x-----x----|
--L--7--7----7--7--7--7--|--7----7----7----7----|---9-----9-----9-----9----|
-------------------------|----------------------|--------------------------|


  Q    Q    Q    Q       Q    Q     Q     Q       Q.       Q.       Q     
----------------------|------------------------|-------------------------|
----------------------|------------------------|-------------------------|
--8----8----8----8----|--9----9----11----11----|--9s------11s------16----|
--x----x----x----x----|--x----x-----x-----x----|--x--------x--------x----|
--6----6----6----6----|--7----7-----9-----9----|--7s-------9s------14----|
----------------------|------------------------|-------------------------|


  W                   H.            Q       W                 
-------------------|---------------------|-------------------|
-------------------|---------------------|-------------------|
--L----------------|--8S------------9----|--L----------------|
-------------------|--x-------------x----|-------------------|
--L----------------|--6S------------7----|--L----------------|
-------------------|---------------------|-------------------|


  Q.       Q.       Q       W                   H.            Q     
-------------------------|-------------------|---------------------|
-------------------------|-------------------|---------------------|
--9s------11s------16----|--L----------------|--8S------------9----|
--x--------x--------x----|-------------------|--x-------------x----|
--7s-------9s------14----|--L----------------|--6S------------7----|
-------------------------|-------------------|---------------------|


                      PM PM              PM    PM                      
  W                   E  E  Q    Q    E  E     E  E  E  Q    E  E  E   
-------------------|------------------------|-------------------------|
-------------------|------------------------|-------------------------|
--L----------------|--9--9--9----9----9--9--|--9--9--9--9----9--9--9--|
-------------------|--x--x--x----x----x--x--|--x--x--x--x----x--x--x--|
--L----------------|--7--7--7----7----7--7--|--7--7--7--7----7--7--7--|
-------------------|------------------------|-------------------------|


  PM PM              PM    PM                        PM PM              
PM  
  E  E  Q    Q    E  E     E  E  E  Q    E  E  E     E  E  Q    Q    E  
E   
------------------------|-------------------------|------------------------|
------------------------|-------------------------|------------------------|
--9--9--9----9----9--9--|--9--9--9--9----9--9--9--|--9--9--9----9----9--9--|
--x--x--x----x----x--x--|--x--x--x--x----x--x--x--|--x--x--x----x----x--x--|
--7--7--7----7----7--7--|--7--7--7--7----7--7--7--|--7--7--7----7----7--7--|
------------------------|-------------------------|------------------------|


  PM                                                 
  E  E  E  Q    E  E  E     E  E  E  E  E  E  E  E   
-------------------------|--------------------------|
-------------------------|--------------------------|
--9--9--9--9----9--9--9--|--9--9--9--9--9--9--9--9--|
--x--x--x--x----x--x--x--|--x--x--x--x--x--x--x--x--|
--7--7--7--7----7--7--7--|--7--7--7--7--7--7--7--7--|
-------------------------|--------------------------|


  E  E  E  E   E   E   E   E     E  E  E  E  E  E  E  E   
------------------------------|--------------------------|
------------------------------|--------------------------|
--9--9--9--9--16--16--16--16--|--9--9--9--9--9--9--9--9--|
--x--x--x--x---x---x---x---x--|--x--x--x--x--x--x--x--x--|
--7--7--7--7--14--14--14--14--|--7--7--7--7--7--7--7--7--|
------------------------------|--------------------------|


  E  E  E  E  E  E  E  E     E  E  E   E   E   E   E   E   
--------------------------|-------------------------------|
--------------------------|-------------------------------|
--9--9--9--9--9--9--9--9--|--9--9--9--11--11--11--16--16--|
--x--x--x--x--x--x--x--x--|--x--x--x---x---x---x---x---x--|
--7--7--7--7--7--7--7--7--|--7--7--7---9---9---9--14--14--|
--------------------------|-------------------------------|


   E   E   E   E   E   E   E   E     E  E  E   E   E   E   E   E   
----------------------------------|-------------------------------|
----------------------------------|-------------------------------|
--16--16--16--16--16--16--16--16--|--9--9--9--11--11--11--16--16--|
---x---x---x---x---x---x---x---x--|--x--x--x---x---x---x---x---x--|
--14--14--14--14--14--14--14--14--|--7--7--7---9---9---9--14--14--|
----------------------------------|-------------------------------|


   E   E   E   E   E   E   E   E      E   E   E   E   E   E   E   E   
----------------------------------|----------------------------------|
----------------------------------|----------------------------------|
--16--16--16--16--16--16--16--16--|--16--16--16--16--16--16--16--16--|
---x---x---x---x---x---x---x---x--|---x---x---x---x---x---x---x---x--|
--14--14--14--14--14--14--14--14--|--14--14--14--14--14--14--14--14--|
----------------------------------|----------------------------------|


   E   E   E   E   E   E   E   E      E   E   E   E   E   E   E   E   
----------------------------------|----------------------------------|
----------------------------------|----------------------------------|
--16--16--16--16--16--16--16--16--|--16--16--16--14--14--14--13--13--|
---x---x---x---x---x---x---x---x--|---x---x---x---x---x---x---x---x--|
--14--14--14--14--14--14--14--14--|--14--14--14--12--12--12--11--11--|
----------------------------------|----------------------------------|


   E   E   E   E   E   E   E   E     E  E  E   E   E   E   E   E   
----------------------------------|-------------------------------|
----------------------------------|-------------------------------|
--13--13--13--13--13--13--13--13--|--9--9--9--11--11--11--16--16--|
---x---x---x---x---x---x---x---x--|--x--x--x---x---x---x---x---x--|
--11--11--11--11--11--11--11--11--|--7--7--7---9---9---9--14--14--|
----------------------------------|-------------------------------|


   E   E   E   E   E   E   E   E      E   E   Q     E   E   Q     
----------------------------------|------------------------------|
----------------------------------|------------------------------|
--16--16--16--16--16--16--16--16--|--16--16--16----16--16--16----|
---x---x---x---x---x---x---x---x--|---x---x---x-----x---x---x----|
--14--14--14--14--14--14--14--14--|--14--14--14----14--14--14----|
----------------------------------|------------------------------|


   E   E   Q     E   E   Q        E   E   Q     E   E   Q     
------------------------------|------------------------------|
------------------------------|------------------------------|
--16--16--16----16--16--16----|--16--16--16----16--16--16----|
---x---x---x-----x---x---x----|---x---x---x-----x---x---x----|
--14--14--14----14--14--14----|--14--14--14----14--14--14----|
------------------------------|------------------------------|


   E   E   Q     E   E   Q        E   E   E   Q     E   Q     
------------------------------|------------------------------|
------------------------------|------------------------------|
--16--16--16----16--16--16----|--16--16--16--16----16--16----|
---x---x---x-----x---x---x----|---x---x---x---x-----x---x----|
--14--14--14----14--14--14----|--14--14--14--14----14--14----|
------------------------------|------------------------------|


  W                   W                   W                   W                 
-------------------|-------------------|-------------------|-------------------|
-------------------|-------------------|-------------------|-------------------|
--L----------------|-------------------|-------------------|-------------------|
-------------------|-------------------|-------------------|-------------------|
--L----------------|-------------------|-------------------|-------------------|
-------------------|-------------------|-------------------|-------------------|


  W                   W                   W                 
-------------------|-------------------|-------------------|
-------------------|-------------------|-------------------|
-------------------|-------------------|-------------------|
-------------------|-------------------|-------------------|
-------------------|-------------------|-------------------|
-------------------|-------------------|-------------------|


  E  E  E  E  E  E  E  E     E  E  E  E  E  E  E  E   
--------------------------|--------------------------|
--------------------------|--------------------------|
--9--9--9--9--9--9--9--9--|--4--4--4--4--4--4--4--4--|
--------------------------|--------------------------|
--------------------------|--------------------------|
--------------------------|--------------------------|


  E  E  E  E  E  E  E  E     E  E  E  E  E  E  E  E      W                 
--------------------------|--------------------------|--12----------------|
--------------------------|--------------------------|---x----------------|
--5--5--5--5--5--5--5--5--|--6--6--6--6--6--6--6--6--|---9----------------|
--------------------------|--------------------------|---x----------------|
--------------------------|--------------------------|---7----------------|
--------------------------|--------------------------|--------------------|


  E  E  E  E  E  E  E  E      E   E   E   E   E   E   E   E   
--------------------------|----------------------------------|
--------------------------|----------------------------------|
--9--9--9--9--9--9--9--9--|--16--16--16--16--16--16--16--16--|
--x--x--x--x--x--x--x--x--|---x---x---x---x---x---x---x---x--|
--7--7--7--7--7--7--7--7--|--14--14--14--14--14--14--14--14--|
--------------------------|----------------------------------|


                   <                                    
   E   E   E   E   H           E  E  E  E  E  E  E  E   
----------------------------|--------------------------|
----------------------------|--------------------------|
--16--16--16--16--16--------|--9--9--9--9--9--9--9--9--|
---x---x---x---x---x--------|--x--x--x--x--x--x--x--x--|
--14--14--14--14--14--------|--7--7--7--7--7--7--7--7--|
----------------------------|--------------------------|


  E  E  E  E  E  E  E  E     E  E  E   E   E   E   E   E   
--------------------------|-------------------------------|
--------------------------|-------------------------------|
--9--9--9--9--9--9--9--9--|--9--9--9--11--11--11--16--16--|
--x--x--x--x--x--x--x--x--|--x--x--x---x---x---x---x---x--|
--7--7--7--7--7--7--7--7--|--7--7--7---9---9---9--14--14--|
--------------------------|-------------------------------|


   E   E   E   E   E   E   E   E     E  E  E   E   E   E   E   E   
----------------------------------|-------------------------------|
----------------------------------|-------------------------------|
--16--16--16--16--16--16--16--16--|--9--9--9--11--11--11--16--16--|
---x---x---x---x---x---x---x---x--|--x--x--x---x---x---x---x---x--|
--14--14--14--14--14--14--14--14--|--7--7--7---9---9---9--14--14--|
----------------------------------|-------------------------------|


   E   E   E   E   E   E   E   E      E   E   E   E   E   E   E   E   
----------------------------------|----------------------------------|
----------------------------------|----------------------------------|
--16--16--16--16--16--16--16--16--|--16--16--16--16--16--16--16--16--|
---x---x---x---x---x---x---x---x--|---x---x---x---x---x---x---x---x--|
--14--14--14--14--14--14--14--14--|--14--14--14--14--14--14--14--14--|
----------------------------------|----------------------------------|


   E   E   E   E   E   E   E   E      E   E   E   E   E   E   E   E   
----------------------------------|----------------------------------|
----------------------------------|----------------------------------|
--16--16--16--16--16--16--16--16--|--16--16--16--14--14--14--13--13--|
---x---x---x---x---x---x---x---x--|---x---x---x---x---x---x---x---x--|
--14--14--14--14--14--14--14--14--|--14--14--14--12--12--12--11--11--|
----------------------------------|----------------------------------|


   E   E   E   E   E   E   E   E     E  E  E   E   E   E   E   E   
----------------------------------|-------------------------------|
----------------------------------|-------------------------------|
--13--13--13--13--13--13--13--13--|--9--9--9--11--11--11--16--16--|
---x---x---x---x---x---x---x---x--|--x--x--x---x---x---x---x---x--|
--11--11--11--11--11--11--11--11--|--7--7--7---9---9---9--14--14--|
----------------------------------|-------------------------------|


   E   E   E   E   E   E   E   E      E   E   Q     E   E   Q     
----------------------------------|------------------------------|
----------------------------------|------------------------------|
--16--16--16--16--16--16--16--16--|--16--16--16----16--16--16----|
---x---x---x---x---x---x---x---x--|---x---x---x-----x---x---x----|
--14--14--14--14--14--14--14--14--|--14--14--14----14--14--14----|
----------------------------------|------------------------------|


   E   E   Q     E   E   Q        E   E   E   E   E   E   E   E   
------------------------------|----------------------------------|
------------------------------|----------------------------------|
--16--16--16----16--16--16----|--16--16--16--16--16--16--16--16--|
---x---x---x-----x---x---x----|---x---x---x---x---x---x---x---x--|
--14--14--14----14--14--14----|--14--14--14--14--14--14--14--14--|
------------------------------|----------------------------------|


   E   E   E   E   E   E   E   E     Q    Q    Q    Q     
----------------------------------|----------------------|
----------------------------------|----------------------|
--16--16--16--16--16--16--16--16--|--6----6----6----6----|
---x---x---x---x---x---x---x---x--|--6----6----6----6----|
--14--14--14--14--14--14--14--14--|--4----4----4----4----|
----------------------------------|----------------------|


  Q    Q    Q    Q       Q    Q    Q    Q       Q    Q    Q    Q     
----------------------|----------------------|----------------------|
----------------------|----------------------|----------------------|
--5----5----5----5----|----------------------|----------------------|
--6----6----6----6----|--9----9----9----9----|--8----8----8----8----|
--3----3----3----3----|--9----9----9----9----|--9----9----9----9----|
----------------------|--7----7----7----7----|--6----6----6----6----|


  Q    Q    Q    Q       Q    Q    Q    Q       Q    Q    Q    Q     
----------------------|----------------------|----------------------|
----------------------|----------------------|----------------------|
--6----6----6----6----|--5----5----5----5----|----------------------|
--6----6----6----6----|--6----6----6----6----|--7----7----7----7----|
--4----4----4----4----|--3----3----3----3----|--7----7----7----7----|
----------------------|----------------------|--5----5----5----5----|


  Q    Q    Q    Q       Q    Q    Q    Q       Q    Q    Q    Q     
----------------------|----------------------|----------------------|
----------------------|----------------------|----------------------|
----------------------|--6----6----6----6----|--5----5----5----5----|
--7----7----7----7----|--6----6----6----6----|--6----6----6----6----|
--7----7----7----7----|--4----4----4----4----|--3----3----3----3----|
--5----5----5----5----|----------------------|----------------------|


  Q    Q    Q    Q       Q    Q    Q    Q       Q    Q    Q    Q     
----------------------|----------------------|----------------------|
----------------------|----------------------|----------------------|
--9----9----9----9----|--8----8----8----8----|--6----6----6----6----|
--9----9----9----9----|--9----9----9----9----|--6----6----6----6----|
--7----7----7----7----|--6----6----6----6----|--4----4----4----4----|
----------------------|----------------------|----------------------|


                         PM PM PM PM PM PM PM PM    PM PM PM PM              
  Q    Q    Q    Q       E  E  E  E  E  E  E  E     E  E  E  E  E  E  E  
E   
----------------------|--------------------------|--------------------------|
----------------------|--------------------------|--------------------------|
--5----5----5----5----|--------------------------|--------------------------|
--6----6----6----6----|--7--7--7--7--7--7--7--7--|--7--7--7--7--7--7--7--7--|
--3----3----3----3----|--7--7--7--7--7--7--7--7--|--7--7--7--7--7--7--7--7--|
----------------------|--5--5--5--5--5--5--5--5--|--5--5--5--5--5--5--5--5--|


  E  E  H.              W                   W                 
---------------------|-------------------|-------------------|
---------------------|-------------------|-------------------|
---------------------|-------------------|-------------------|
--2--2---------------|-------------------|-------------------|
--2--2---------------|-------------------|-------------------|
--0--0---------------|-------------------|-------------------|


                                                              <                 
  W                   W                   W                   W                 
-------------------|-------------------|-------------------|--0----------------|
-------------------|-------------------|-------------------|--0----------------|
-------------------|-------------------|-------------------|--2----------------|
-------------------|-------------------|-------------------|--2----------------|
-------------------|-------------------|-------------------|--0----------------|
-------------------|-------------------|-------------------|-------------------|


  W                   E  E  H.              W                 
--L----------------|--0--0---------------|-------------------|
--L----------------|--0--0---------------|-------------------|
--L----------------|--2--2---------------|-------------------|
--L----------------|--2--2---------------|-------------------|
--L----------------|--2--2---------------|-------------------|
-------------------|--0--0---------------|-------------------|


  <                                                                
  W                   W                   E  E  E  E  E  E  E  E   
--0----------------|--L----------------|--------------------------|
--0----------------|--L----------------|--------------------------|
--2----------------|--L----------------|--6--6--6--6--6--6--6--6--|
--2----------------|--L----------------|--x--x--x--x--x--x--x--x--|
--0----------------|--L----------------|--4--4--4--4--4--4--4--4--|
-------------------|-------------------|--------------------------|


  E  E  E  E  E  E  E  E     E  E  E  E  E  E  E  E   
--------------------------|--------------------------|
--------------------------|--------------------------|
--8--8--8--8--8--8--8--8--|--9--9--9--9--9--9--9--9--|
--x--x--x--x--x--x--x--x--|--x--x--x--x--x--x--x--x--|
--6--6--6--6--6--6--6--6--|--7--7--7--7--7--7--7--7--|
--------------------------|--------------------------|


                             PM PM                                              
  E  E  E  E  E  E  E  E     E  E  Q    E  E  E  E     E  E  E  E  E  E  
E  E   
--------------------------|-------------------------|--------------------------|
--------------------------|-------------------------|--------------------------|
--9--9--9--9--9--9--9--9--|--9--9--9----9--9--9--9--|--9--9--9--9--9--9--9--9--|
--x--x--x--x--x--x--x--x--|--x--x--x----x--x--x--x--|--x--x--x--x--x--x--x--x--|
--7--7--7--7--7--7--7--7--|--7--7--7----7--7--7--7--|--7--7--7--7--7--7--7--7--|
--------------------------|-------------------------|--------------------------|


  E  E  E   E   E   E   E   E      E   E   E   E   E   E   E   E   
-------------------------------|----------------------------------|
-------------------------------|----------------------------------|
--9--9--9--11--11--11--16--16--|--16--16--16--16--16--16--16--16--|
--x--x--x---x---x---x---x---x--|---x---x---x---x---x---x---x---x--|
--7--7--7---9---9---9--14--14--|--14--14--14--14--14--14--14--14--|
-------------------------------|----------------------------------|


  E  E  E   E   E   E   E   E      E   E   E   E   E   E   E   E   
-------------------------------|----------------------------------|
-------------------------------|----------------------------------|
--9--9--9--11--11--11--16--16--|--16--16--16--16--16--16--16--16--|
--x--x--x---x---x---x---x---x--|---x---x---x---x---x---x---x---x--|
--7--7--7---9---9---9--14--14--|--14--14--14--14--14--14--14--14--|
-------------------------------|----------------------------------|


   PM  PM                                                           
   E   E   Q     E   E   E   E      E   E   E   E   E   E   E   E   
--------------------------------|----------------------------------|
--------------------------------|----------------------------------|
--16--16--16----16--16--16--16--|--16--16--16--16--16--16--16--16--|
---x---x---x-----x---x---x---x--|---x---x---x---x---x---x---x---x--|
--14--14--14----14--14--14--14--|--14--14--14--14--14--14--14--14--|
--------------------------------|----------------------------------|


   E   E   E   E   E   E   E   E      E   E   E   E   E   E   E   E   
----------------------------------|----------------------------------|
----------------------------------|----------------------------------|
--16--16--16--14--14--14--13--13--|--13--13--13--13--13--13--13--13--|
---x---x---x---x---x---x---x---x--|---x---x---x---x---x---x---x---x--|
--14--14--14--12--12--12--11--11--|--11--11--11--11--11--11--11--11--|
----------------------------------|----------------------------------|


  E  E  E   E   E   E   E   E      E   E   E   E   E   E   E   E   
-------------------------------|----------------------------------|
-------------------------------|----------------------------------|
--9--9--9--11--11--11--16--16--|--16--16--16--16--16--16--16--16--|
--x--x--x---x---x---x---x---x--|---x---x---x---x---x---x---x---x--|
--7--7--7---9---9---9--14--14--|--14--14--14--14--14--14--14--14--|
-------------------------------|----------------------------------|


            PM PM PM                PM   PM   PM                        
                                    |----3----|                         
  Q    Q    E  E  Q       Q    Q    Q    Q    Q       W                 
-----------------------|---------------------------|-------------------|
-----------------------|---------------------------|-------------------|
--6----6---------------|--4----4-------------------|--2----------------|
--6----6----2--2--2----|--4----4----2----2----2----|--2----------------|
--4----4----2--2--2----|--2----2----2----2----2----|--0----------------|
------------0--0--0----|------------0----0----0----|-------------------|


  W                   W                   W                 
-------------------|-------------------|-------------------|
-------------------|-------------------|-------------------|
--L----------------|--L----------------|--L----------------|
--L----------------|--L----------------|--L----------------|
--L----------------|--L----------------|--L----------------|
-------------------|-------------------|-------------------|


  W                  
-------------------||
-------------------||
--L----------------||
--L----------------||
--L----------------||
-------------------||



     PM PM PM PM PM PM PM PM    PM PM PM PM PM PM PM PM  
     E  E  E  E  E  E  E  E     E  E  E  E  E  E  E  E   
E||--------------------------|--------------------------|
B||--------------------------|--------------------------|
G||--6--6--6--6--6--6--------|--------------------------|
D||--6--6--6--6--6--6--7--7--|--7--7--7--7--7--7--7--7--|
A||--4--4--4--4--4--4--7--7--|--7--7--7--7--7--7--7--7--|
E||--------------------5--5--|--5--5--5--5--5--5--5--5--|


  PM PM PM PM PM PM PM PM    PM PM PM PM                                    
  E  E  E  E  E  E  E  E     E  E  E  E  H           E  E  E  Q    E  Q     
--------------------------|--------------0--------|------------------------|
--------------------------|--------------0--------|------------------------|
--6--6--6--6--6--6--------|--------------0--------|--6--6--6--6----6-------|
--6--6--6--6--6--6--7--7--|--7--7--7--7-----------|--6--6--6--6----6--7----|
--4--4--4--4--4--4--7--7--|--7--7--7--7-----------|--4--4--4--4----4--7----|
--------------------5--5--|--5--5--5--5-----------|-------------------5----|


  E  E  Q    E  E  E  E     E  E  E  Q    E  Q       E  E  Q    E  E  E  
E   
-------------------------|------------------------|-------------------------|
-------------------------|------------------------|-------------------------|
-------------------------|--6--6--6--6----6-------|-------------------------|
--L--7--7----7--7--7--7--|--6--6--6--6----6--7----|--L--7--7----7--7--7--7--|
--L--7--7----7--7--7--7--|--4--4--4--4----4--7----|--L--7--7----7--7--7--7--|
--L--5--5----5--5--5--5--|-------------------5----|--L--5--5----5--5--5--5--|


  Q    Q    Q    Q       Q    Q    Q    Q       Q    Q    Q    Q     
----------------------|----------------------|----------------------|
----------------------|----------------------|----------------------|
----------------------|----------------------|--4----4----4----4----|
--2----2----2----2----|--2----2----2----2----|--4----4----4----4----|
--2----2----2----2----|--2----2----2----2----|--2----2----2----2----|
--0----0----0----0----|--0----0----0----0----|----------------------|


                                            NH                        
  Q    Q    Q    Q       E  E  E  Q    E    Q       W                 
----------------------|--------------------------|-------------------|
----------------------|--------------------------|-------------------|
--4----4----4----4----|--6--6--6--6----6--5----|--L----------------|
--4----4----4----4----|--6--6--6--6----6---------|-------------------|
--2----2----2----2----|--4--4--4--4----4---------|-------------------|
----------------------|--------------------------|-------------------|


  E  E  E  Q    E  Q       E  E  Q    E  E  E  E     Q    Q    Q    Q     
------------------------|-------------------------|----------------------|
------------------------|-------------------------|----------------------|
--6--6--6--6----6-------|-------------------------|----------------------|
--6--6--6--6----6--7----|--L--7--7----7--7--7--7--|--2----2----2----2----|
--4--4--4--4----4--7----|--L--7--7----7--7--7--7--|--2----2----2----2----|
-------------------5----|--L--5--5----5--5--5--5--|--0----0----0----0----|


  Q    Q    Q    Q       Q    Q    Q    Q       Q    Q    Q    Q     
----------------------|----------------------|----------------------|
----------------------|----------------------|----------------------|
----------------------|--4----4----4----4----|--4----4----4----4----|
--2----2----2----2----|--4----4----4----4----|--4----4----4----4----|
--2----2----2----2----|--2----2----2----2----|--2----2----2----2----|
--0----0----0----0----|----------------------|----------------------|


  W                   W                   W                 
-------------------|-------------------|-------------------|
-------------------|-------------------|-------------------|
--9----------------|--L----------------|--L----------------|
--9----------------|--L----------------|--L----------------|
--7----------------|--L----------------|--L----------------|
--0----------------|--L----------------|--L----------------|


  H.           E  E     W                   W                 
---------------------|-------------------|-------------------|
---------------------|-------------------|-------------------|
--L------------9--9--|--L----------------|--L----------------|
--L------------9--9--|--L----------------|--L----------------|
--L------------7--7--|--L----------------|--L----------------|
--L------------0--0--|--L----------------|--L----------------|


  W                   W                   E  E  Q    Q    E  E   
-------------------|-------------------|------------------------|
-------------------|-------------------|------------------------|
--9----------------|--L----------------|--x--x--9----9----9--x--|
--9----------------|--L----------------|--x--x--x----x----x--x--|
--7----------------|--L----------------|--x--x--7----6----6--x--|
--0----------------|--L----------------|------------------------|


  E  E  E   Q    E  E  E     E  E  Q    Q    E  E   
--------------------------|------------------------|
--------------------------|------------------------|
--x--9--9--11----9--9--9--|--x--x--9----9----9--x--|
--x--x--x---x----x--x--x--|--x--x--x----x----x--x--|
--x--6--7---7----7--7--7--|--x--x--7----6----6--x--|
--------------------------|------------------------|


  E   E   E   Q    E  E  E     E  E  Q    Q    E  E   
----------------------------|------------------------|
----------------------------|------------------------|
--x--11--11--11----9--9--9--|--x--x--9----9----9--x--|
--x---x---x---x----x--x--x--|--x--x--x----x----x--x--|
--x---7---7---7----7--7--7--|--x--x--7----6----6--x--|
----------------------------|------------------------|


  E  E  E   Q    E  E  E     E  E  E  E  E  E  E  E   
--------------------------|--------------------------|
--------------------------|--------------------------|
--x--9--9--11----9--9--9--|--9--9--9--9--9--9--9--9--|
--x--x--x---x----x--x--x--|--x--x--x--x--x--x--x--x--|
--x--6--7---7----7--7--7--|--7--7--7--7--7--7--7--7--|
--------------------------|--------------------------|


  E  E  E  E  E  E  E  E     E  E  E  E  E  E  E  E   
--------------------------|--------------------------|
--------------------------|--------------------------|
--9--9--9--9--9--9--9--9--|--------------------------|
--x--x--x--x--x--x--x--x--|--2--2--2--2--2--2--2--2--|
--7--7--7--7--7--7--7--7--|--2--2--2--2--2--2--2--2--|
--------------------------|--0--0--0--0--0--0--0--0--|


  E  E  E  E  E  E  E  E     E  E  E  E  E  E  E  E   
--------------------------|--------------------------|
--------------------------|--------------------------|
--------------------------|--2--2--2--2--2--2--2--2--|
--2--2--2--2--2--2--2--2--|--2--2--2--2--2--2--2--2--|
--2--2--2--2--2--2--2--2--|--0--0--0--0--0--0--0--0--|
--0--0--0--0--0--0--0--0--|--------------------------|


                                       PM PM PM                PM PM PM    
  E  E  E  E  E  E  E  E     Q    Q    E  E  Q       Q    Q    E  E  Q     
--------------------------|-----------------------|-----------------------|
--------------------------|-----------------------|-----------------------|
--2--2--2--2--2--2--2--2--|--6----6---------------|--4----4---------------|
--2--2--2--2--2--2--2--2--|--6----6----2--2--2----|--4----4----2--2--2----|
--0--0--0--0--0--0--0--0--|--4----4----2--2--2----|--2----2----2--2--2----|
--------------------------|------------0--0--0----|------------0--0--0----|


  E  E  E  E  E  E  E  E     E  E  E  E  E  E  E  E   
--------------------------|--------------------------|
--------------------------|--------------------------|
--2--2--2--2--2--2--2--2--|--2--2--2--2--2--2--2--2--|
--2--2--2--2--2--2--2--2--|--2--2--2--2--2--2--2--2--|
--0--0--0--0--0--0--0--0--|--0--0--0--0--0--0--0--0--|
--------------------------|--------------------------|


  E  E  E  E  E  E  E  E     E  E  E  E  E  E  E  E   
--------------------------|--------------------------|
--------------------------|--------------------------|
--------------------------|--------------------------|
--2--2--2--2--2--2--2--2--|--2--2--2--2--2--2--2--2--|
--2--2--2--2--2--2--2--2--|--2--2--2--2--2--2--2--2--|
--0--0--0--0--0--0--0--0--|--0--0--0--0--0--0--0--0--|


                                                                  PM PM 
PM    
  E  E  E  E  E  E  E  E     E  E  E  E  E  E  E  E     Q    Q    E  E  
Q     
--------------------------|--------------------------|-----------------------|
--------------------------|--------------------------|-----------------------|
--2--2--2--2--2--2--2--2--|--2--2--2--2--2--2--2--2--|--6----6---------------|
--2--2--2--2--2--2--2--2--|--2--2--2--2--2--2--2--2--|--6----6----2--2--2----|
--0--0--0--0--0--0--0--0--|--0--0--0--0--0--0--0--0--|--4----4----2--2--2----|
--------------------------|--------------------------|------------0--0--0----|


            PM PM PM                                                          
  Q    Q    E  E  Q       E  E  E  E  E  E  E  E     E  E  E  E  E  E  
E  E   
-----------------------|--------------------------|--------------------------|
-----------------------|--------------------------|--------------------------|
--4----4---------------|--2--2--2--2--2--2--2--2--|--2--2--2--2--2--2--2--2--|
--4----4----2--2--2----|--2--2--2--2--2--2--2--2--|--2--2--2--2--2--2--2--2--|
--2----2----2--2--2----|--0--0--0--0--0--0--0--0--|--0--0--0--0--0--0--0--0--|
------------0--0--0----|--------------------------|--------------------------|


  E  E  E  Q    E  Q       W                   W                 
------------------------|-------------------|-------------------|
------------------------|-------------------|-------------------|
--6--6--6--6----6-------|-------------------|-------------------|
--6--6--6--6----6--2----|--L----------------|--L----------------|
--4--4--4--4----4--2----|--L----------------|--L----------------|
-------------------0----|--L----------------|--L----------------|


  W                   W                   W                   W                 
-------------------|-------------------|-------------------|-------------------|
-------------------|-------------------|-------------------|-------------------|
-------------------|-------------------|-------------------|-------------------|
--L----------------|--L----------------|--L----------------|--L----------------|
--L----------------|--L----------------|--L----------------|--L----------------|
--L----------------|--L----------------|--L----------------|--L----------------|


  H.           E  E     Q    Q    Q    Q       E  E  E  E  E  E  E  E   
---------------------|----------------------|--------------------------|
---------------------|----------------------|--------------------------|
---------------x--x--|--9----9----9----9----|--4--4--4--4--4--4--4--4--|
--L------------x--x--|--9----9----9----9----|--4--4--4--4--4--4--4--4--|
--L------------x--x--|--7----7----7----7----|--2--2--2--2--2--2--2--2--|
--L------------------|----------------------|--------------------------|


  E  E  E  E  E  E  E  E     E  E  E  E  E  E  E  E     Q    Q    E  E  
E  E   
--------------------------|--------------------------|------------------------|
--------------------------|--------------------------|------------------------|
--5--5--5--5--5--5--5--5--|--6--6--6--6--6--6--6--6--|--9----9----9--9--9--9--|
--6--6--6--6--6--6--6--6--|--6--6--6--6--6--6--6--6--|--9----9----9--9--9--9--|
--3--3--3--3--3--3--3--3--|--4--4--4--4--4--4--4--4--|--7----7----7--7--7--7--|
--------------------------|--------------------------|------------------------|


  E  E  Q    E  E  E  E     Q    Q    E  E  E  E     E  E  Q    H         
-------------------------|------------------------|----------------------|
-------------------------|------------------------|----------------------|
--L--9--9----9--9--9--9--|--4----4----4--4--4--4--|--L--4--4-------------|
-----9--9----9--9--9--9--|--4----4----4--4--4--4--|-----4--4-------------|
--L--7--7----7--7--7--7--|--2----2----2--2--2--2--|--L--2--2-------------|
-------------------------|------------------------|----------------------|


  E  E  E  E  E  E  E  E     E  E  E  E  E  E  E  E   
--------------------------|--------------------------|
--------------------------|--------------------------|
--------------------------|--------------------------|
--2--2--2--2--2--2--2--2--|--2--2--2--2--2--2--2--2--|
--2--2--2--2--2--2--2--2--|--2--2--2--2--2--2--2--2--|
--0--0--0--0--0--0--0--0--|--0--0--0--0--0--0--0--0--|


                                                                  PM PM 
PM    
  E  E  E  E  E  E  E  E     E  E  E  E  E  E  E  E     Q    Q    E  E  
Q     
--------------------------|--------------------------|-----------------------|
--------------------------|--------------------------|-----------------------|
--2--2--2--2--2--2--2--2--|--2--2--2--2--2--2--2--2--|--6----6---------------|
--2--2--2--2--2--2--2--2--|--2--2--2--2--2--2--2--2--|--6----6----2--2--2----|
--0--0--0--0--0--0--0--0--|--0--0--0--0--0--0--0--0--|--4----4----2--2--2----|
--------------------------|--------------------------|------------0--0--0----|


            PM PM PM                                                          
  Q    Q    E  E  Q       E  E  E  E  E  E  E  E     E  E  E  E  E  E  
E  E   
-----------------------|--------------------------|--------------------------|
-----------------------|--------------------------|--------------------------|
--4----4---------------|--2--2--2--2--2--2--2--2--|--2--2--2--2--2--2--2--2--|
--4----4----2--2--2----|--2--2--2--2--2--2--2--2--|--2--2--2--2--2--2--2--2--|
--2----2----2--2--2----|--0--0--0--0--0--0--0--0--|--0--0--0--0--0--0--0--0--|
------------0--0--0----|--------------------------|--------------------------|


  E  E  E  E  E  E  E  E     E  E  E  E  E  E  E  E   
--------------------------|--------------------------|
--------------------------|--------------------------|
--------------------------|--------------------------|
--2--2--2--2--2--2--2--2--|--2--2--2--2--2--2--2--2--|
--2--2--2--2--2--2--2--2--|--2--2--2--2--2--2--2--2--|
--0--0--0--0--0--0--0--0--|--0--0--0--0--0--0--0--0--|


                                                                  PM PM 
PM    
  E  E  E  E  E  E  E  E     E  E  E  E  E  E  E  E     Q    Q    E  E  
Q     
--------------------------|--------------------------|-----------------------|
--------------------------|--------------------------|-----------------------|
--2--2--2--2--2--2--2--2--|--2--2--2--2--2--2--2--2--|--6----6---------------|
--2--2--2--2--2--2--2--2--|--2--2--2--2--2--2--2--2--|--6----6----2--2--2----|
--0--0--0--0--0--0--0--0--|--0--0--0--0--0--0--0--0--|--4----4----2--2--2----|
--------------------------|--------------------------|------------0--0--0----|


            PM PM PM                                                          
  Q    Q    E  E  Q       E  E  E  E  E  E  E  E     E  E  E  E  E  E  
E  E   
-----------------------|--------------------------|--------------------------|
-----------------------|--------------------------|--------------------------|
--4----4---------------|--2--2--2--2--2--2--2--2--|--2--2--2--2--2--2--2--2--|
--4----4----2--2--2----|--2--2--2--2--2--2--2--2--|--2--2--2--2--2--2--2--2--|
--2----2----2--2--2----|--0--0--0--0--0--0--0--0--|--0--0--0--0--0--0--0--0--|
------------0--0--0----|--------------------------|--------------------------|


  Q    Q    Q    Q       Q    Q    Q    Q       Q    Q    Q    Q     
----------------------|----------------------|----------------------|
----------------------|----------------------|----------------------|
--6----6----6----6----|--5----5----5----5----|----------------------|
--6----6----6----6----|--6----6----6----6----|--9----9----9----9----|
--4----4----4----4----|--3----3----3----3----|--9----9----9----9----|
----------------------|----------------------|--7----7----7----7----|


  Q    Q    Q    Q       Q    Q    Q    Q       Q    Q    Q    Q     
----------------------|----------------------|----------------------|
----------------------|----------------------|----------------------|
----------------------|--6----6----6----6----|--5----5----5----5----|
--8----8----8----8----|--6----6----6----6----|--6----6----6----6----|
--9----9----9----9----|--4----4----4----4----|--3----3----3----3----|
--6----6----6----6----|----------------------|----------------------|


  Q    Q    Q    Q       Q    Q    Q    Q       Q    Q    Q    Q     
----------------------|----------------------|----------------------|
----------------------|----------------------|----------------------|
----------------------|----------------------|--6----6----6----6----|
--7----7----7----7----|--7----7----7----7----|--6----6----6----6----|
--7----7----7----7----|--7----7----7----7----|--4----4----4----4----|
--5----5----5----5----|--5----5----5----5----|----------------------|


  Q    Q    Q    Q       Q    Q    Q    Q       Q    Q    Q    Q     
----------------------|----------------------|----------------------|
----------------------|----------------------|----------------------|
--5----5----5----5----|--9----9----9----9----|--8----8----8----8----|
--6----6----6----6----|--9----9----9----9----|--9----9----9----9----|
--3----3----3----3----|--7----7----7----7----|--6----6----6----6----|
----------------------|----------------------|----------------------|


                                                PM PM PM PM PM PM PM PM  
  Q    Q    Q    Q       Q    Q    Q    Q       E  E  E  E  E  E  E  E   
----------------------|----------------------|--------------------------|
----------------------|----------------------|--------------------------|
--6----6----6----6----|--5----5----5----5----|--------------------------|
--6----6----6----6----|--6----6----6----6----|--7--7--7--7--7--7--7--7--|
--4----4----4----4----|--3----3----3----3----|--7--7--7--7--7--7--7--7--|
----------------------|----------------------|--5--5--5--5--5--5--5--5--|


  PM PM PM PM                PM PM PM PM PM PM PM PM  
  E  E  E  E  E  E  E  E     E  E  E  E  E  E  E  E   
--------------------------|--------------------------|
--------------------------|--------------------------|
--------------------------|--------------------------|
--7--7--7--7--7--7--7--7--|--2--2--2--2--2--2--2--2--|
--7--7--7--7--7--7--7--7--|--2--2--2--2--2--2--2--2--|
--5--5--5--5--5--5--5--5--|--0--0--0--0--0--0--0--0--|


  PM PM PM PM PM PM PM PM    PM PM PM PM PM PM PM PM  
  E  E  E  E  E  E  E  E     E  E  E  E  E  E  E  E   
--------------------------|--------------------------|
--------------------------|--------------------------|
--------------------------|--2--2--2--2--2--2--2--2--|
--2--2--2--2--2--2--2--2--|--2--2--2--2--2--2--2--2--|
--2--2--2--2--2--2--2--2--|--0--0--0--0--0--0--0--0--|
--0--0--0--0--0--0--0--0--|--------------------------|


  PM PM PM PM PM PM PM PM    PM PM PM PM PM PM PM PM  
  E  E  E  E  E  E  E  E     E  E  E  E  E  E  E  E   
--------------------------|--------------------------|
--------------------------|--------------------------|
--2--2--2--2--2--2--2--2--|--6--6--6--6--6--6--6--6--|
--2--2--2--2--2--2--2--2--|--6--6--6--6--6--6--6--6--|
--0--0--0--0--0--0--0--0--|--4--4--4--4--4--4--4--4--|
--------------------------|--------------------------|


  PM PM PM PM PM PM PM PM    PM PM PM PM PM PM PM PM       PM PM    PM 
PM       
  E  E  E  E  E  E  E  E     E  E  E  E  E  E  E  E     E  E  E  E  E  
E  Q     
--------------------------|--------------------------|-------------------------|
--------------------------|--------------------------|-------------------------|
--4--4--4--4--4--4--4--4--|--2--2--2--2--2--2--2--2--|--2--2--2--2--2--2--2----|
--4--4--4--4--4--4--4--4--|--2--2--2--2--2--2--2--2--|--2--2--2--2--2--2--2----|
--2--2--2--2--2--2--2--2--|--0--0--0--0--0--0--0--0--|--0--0--0--0--0--0--0----|
--------------------------|--------------------------|-------------------------|


  PM PM PM PM PM PM PM PM    PM PM PM PM PM PM PM PM  
  E  E  E  E  E  E  E  E     E  E  E  E  E  E  E  E   
--------------------------|--------------------------|
--------------------------|--------------------------|
--------------------------|--------------------------|
--2--2--2--2--2--2--2--2--|--2--2--2--2--2--2--2--2--|
--2--2--2--2--2--2--2--2--|--2--2--2--2--2--2--2--2--|
--0--0--0--0--0--0--0--0--|--0--0--0--0--0--0--0--0--|


  PM PM PM PM PM PM PM PM    PM PM PM PM PM PM PM PM              PM PM 
PM    
  E  E  E  E  E  E  E  E     E  E  E  E  E  E  E  E     Q    Q    E  E  
Q     
--------------------------|--------------------------|-----------------------|
--------------------------|--------------------------|-----------------------|
--2--2--2--2--2--2--2--2--|--2--2--2--2--2--2--2--2--|--6----6---------------|
--2--2--2--2--2--2--2--2--|--2--2--2--2--2--2--2--2--|--6----6----2--2--2----|
--0--0--0--0--0--0--0--0--|--0--0--0--0--0--0--0--0--|--4----4----2--2--2----|
--------------------------|--------------------------|------------0--0--0----|


            PM PM PM                                                          
  Q    Q    E  E  Q       E  E  E  E  E  E  E  E     E  E  E  E  E  E  
E  E   
-----------------------|--------------------------|--------------------------|
-----------------------|--------------------------|--------------------------|
--4----4---------------|--2--2--2--2--2--2--2--2--|--2--2--2--2--2--2--2--2--|
--4----4----2--2--2----|--2--2--2--2--2--2--2--2--|--2--2--2--2--2--2--2--2--|
--2----2----2--2--2----|--0--0--0--0--0--0--0--0--|--0--0--0--0--0--0--0--0--|
------------0--0--0----|--------------------------|--------------------------|


  PM PM                                                                         
  E  E  Q    E  E  E  E     E  E  E  E  E  E  E  E     E  E  E  E  E  E  
E  E   
-------------------------|--------------------------|--------------------------|
-------------------------|--------------------------|--------------------------|
-------------------------|--------------------------|--2--2--2--2--2--2--2--2--|
--2--2--2----2--2--2--2--|--2--2--2--2--2--2--2--2--|--2--2--2--2--2--2--2--2--|
--2--2--2----2--2--2--2--|--2--2--2--2--2--2--2--2--|--0--0--0--0--0--0--0--0--|
--0--0--0----0--0--0--0--|--0--0--0--0--0--0--0--0--|--------------------------|


  E  E  E  E  E  E  E  E     E  E  E  E  E  E  E  E   
--------------------------|--------------------------|
--------------------------|--------------------------|
--2--2--2--2--2--2--2--2--|--6--6--6--6--6--6--6--6--|
--2--2--2--2--2--2--2--2--|--6--6--6--6--6--6--6--6--|
--0--0--0--0--0--0--0--0--|--4--4--4--4--4--4--4--4--|
--------------------------|--------------------------|


                             PM PM                                              
  E  E  E  E  E  E  E  E     E  E  Q    E  E  E  E     E  E  E  E  E  E  
E  E   
--------------------------|-------------------------|--------------------------|
--------------------------|-------------------------|--------------------------|
--4--4--4--4--4--4--4--4--|--2--2--2----2--2--2--2--|--2--2--2--2--2--2--2--2--|
--4--4--4--4--4--4--4--4--|--2--2--2----2--2--2--2--|--2--2--2--2--2--2--2--2--|
--2--2--2--2--2--2--2--2--|--0--0--0----0--0--0--0--|--0--0--0--0--0--0--0--0--|
--------------------------|-------------------------|--------------------------|


  E  E  E  E  E  E  E  E     E  E  E  E  E  E  E  E   
--------------------------|--------------------------|
--------------------------|--------------------------|
--------------------------|--------------------------|
--2--2--2--2--2--2--2--2--|--2--2--2--2--2--2--2--2--|
--2--2--2--2--2--2--2--2--|--2--2--2--2--2--2--2--2--|
--0--0--0--0--0--0--0--0--|--0--0--0--0--0--0--0--0--|


                                                                  PM PM 
PM    
  E  E  E  E  E  E  E  E     E  E  E  E  E  E  E  E     Q    Q    E  E  
Q     
--------------------------|--------------------------|-----------------------|
--------------------------|--------------------------|-----------------------|
--2--2--2--2--2--2--2--2--|--2--2--2--2--2--2--2--2--|--6----6---------------|
--2--2--2--2--2--2--2--2--|--2--2--2--2--2--2--2--2--|--6----6----2--2--2----|
--0--0--0--0--0--0--0--0--|--0--0--0--0--0--0--0--0--|--4----4----2--2--2----|
--------------------------|--------------------------|------------0--0--0----|


            PM   PM   PM                                            
            |----3----|                                             
  Q    Q    Q    Q    Q       W                   W                 
---------------------------|-------------------|-------------------|
---------------------------|-------------------|-------------------|
--4----4-------------------|--2----------------|--~----------------|
--4----4----2----2----2----|--2----------------|--~----------------|
--2----2----2----2----2----|--0----------------|--~----------------|
------------0----0----0----|-------------------|-------------------|


  W                   W                   W                  
-------------------|-------------------|-------------------||
-------------------|-------------------|-------------------||
--~----------------|--~----------------|--~----------------||
--~----------------|--~----------------|--~----------------||
--~----------------|--~----------------|--~----------------||
-------------------|-------------------|-------------------||



Duration Legend
---------------
W - whole
H - half
Q - quarter
E - 8th
S - 16th
T - 32nd
X - 64th
. - note dotted
|-n-|  - n-tuplets


Tablature Legend 
----------------
L - tied note
x - dead note
g - grace note
(n) - ghost note
> - accentuded note
NH - natural harmonic
AH - artificial harmonic
TH - tapped harmonic
SH - semi harmonic
PH - pitch harmonic
h - hammer on
p - pull off
b - bend
br - bendRelease
pb - preBend
pbr - preBendRelease
brb - bendReleaseBend
\n/ - tremolo bar dip
\n - tremolo bar dive
-/n - tremolo bar Release up
/n\ - tremolo bar inverted dip
/n - tremolo bar return
-\n - tremolo bar Release down
S - shift slide
s - legato slide
/ -  slide into from below or out of upwards
\ -  slide into from above or out of downwards
~ - vibrato
W - wide vibrato
tr - trill
TP - tremolo picking
T - tapping
S - slap
P - pop
< - fade in
^ - brush up
v - brush down

Rhythm Guitar


     PM PM PM PM PM PM PM PM    PM PM PM PM PM PM PM PM  
     E  E  E  E  E  E  E  E     E  E  E  E  E  E  E  E   
E||--------------------------|--------------------------|
B||--------------------------|--------------------------|
G||--6--6--6--6--6--6--------|--------------------------|
D||--6--6--6--6--6--6--7--7--|--7--7--7--7--7--7--7--7--|
A||--4--4--4--4--4--4--7--7--|--7--7--7--7--7--7--7--7--|
E||--------------------5--5--|--5--5--5--5--5--5--5--5--|


  PM PM PM PM PM PM PM PM    PM PM PM PM                                    
  E  E  E  E  E  E  E  E     E  E  E  E  H           E  E  E  Q    E  Q     
--------------------------|--------------0--------|------------------------|
--------------------------|--------------0--------|------------------------|
--6--6--6--6--6--6--------|--------------0--------|--6--6--6--6----6-------|
--6--6--6--6--6--6--7--7--|--7--7--7--7-----------|--6--6--6--6----6--7----|
--4--4--4--4--4--4--7--7--|--7--7--7--7-----------|--4--4--4--4----4--7----|
--------------------5--5--|--5--5--5--5-----------|-------------------5----|


  E  E  Q    E  E  E  E     E  E  E  Q    E  Q       E  E  Q    E  E  E  
E   
-------------------------|------------------------|-------------------------|
-------------------------|------------------------|-------------------------|
-------------------------|--6--6--6--6----6-------|-------------------------|
--L--7--7----7--7--7--7--|--6--6--6--6----6--7----|--L--7--7----7--7--7--7--|
--L--7--7----7--7--7--7--|--4--4--4--4----4--7----|--L--7--7----7--7--7--7--|
--L--5--5----5--5--5--5--|-------------------5----|--L--5--5----5--5--5--5--|


  Q    Q    Q    Q       Q    Q    Q    Q       Q    Q    Q    Q     
----------------------|----------------------|----------------------|
----------------------|----------------------|----------------------|
----------------------|----------------------|--4----4----4----4----|
--2----2----2----2----|--2----2----2----2----|--4----4----4----4----|
--2----2----2----2----|--2----2----2----2----|--2----2----2----2----|
--0----0----0----0----|--0----0----0----0----|----------------------|


                                            NH                        
  Q    Q    Q    Q       E  E  E  Q    E    Q       W                 
----------------------|--------------------------|-------------------|
----------------------|--------------------------|-------------------|
--4----4----4----4----|--6--6--6--6----6--5----|--L----------------|
--4----4----4----4----|--6--6--6--6----6---------|-------------------|
--2----2----2----2----|--4--4--4--4----4---------|-------------------|
----------------------|--------------------------|-------------------|


  E  E  E  Q    E  Q       E  E  Q    E  E  E  E     Q    Q    Q    Q     
------------------------|-------------------------|----------------------|
------------------------|-------------------------|----------------------|
--6--6--6--6----6-------|-------------------------|----------------------|
--6--6--6--6----6--7----|--L--7--7----7--7--7--7--|--2----2----2----2----|
--4--4--4--4----4--7----|--L--7--7----7--7--7--7--|--2----2----2----2----|
-------------------5----|--L--5--5----5--5--5--5--|--0----0----0----0----|


  Q    Q    Q    Q       Q    Q    Q    Q       Q    Q    Q    Q     
----------------------|----------------------|----------------------|
----------------------|----------------------|----------------------|
----------------------|--4----4----4----4----|--4----4----4----4----|
--2----2----2----2----|--4----4----4----4----|--4----4----4----4----|
--2----2----2----2----|--2----2----2----2----|--2----2----2----2----|
--0----0----0----0----|----------------------|----------------------|


  W                   W                   W                 
-------------------|-------------------|-------------------|
-------------------|-------------------|-------------------|
--9----------------|--L----------------|--L----------------|
--9----------------|--L----------------|--L----------------|
--7----------------|--L----------------|--L----------------|
--0----------------|--L----------------|--L----------------|


  H.           E  E     W                   W                 
---------------------|-------------------|-------------------|
---------------------|-------------------|-------------------|
--L------------9--9--|--L----------------|--L----------------|
--L------------9--9--|--L----------------|--L----------------|
--L------------7--7--|--L----------------|--L----------------|
--L------------0--0--|--L----------------|--L----------------|


  W                   W                   E  E  Q    Q    E  E   
-------------------|-------------------|------------------------|
-------------------|-------------------|------------------------|
--9----------------|--L----------------|--x--x--9----9----9--x--|
--9----------------|--L----------------|--x--x--x----x----x--x--|
--7----------------|--L----------------|--x--x--7----6----6--x--|
--0----------------|--L----------------|------------------------|


  E  E  E   Q    E  E  E     E  E  Q    Q    E  E   
--------------------------|------------------------|
--------------------------|------------------------|
--x--9--9--11----9--9--9--|--x--x--9----9----9--x--|
--x--x--x---x----x--x--x--|--x--x--x----x----x--x--|
--x--6--7---7----7--7--7--|--x--x--7----6----6--x--|
--------------------------|------------------------|


  E   E   E   Q    E  E  E     E  E  Q    Q    E  E   
----------------------------|------------------------|
----------------------------|------------------------|
--x--11--11--11----9--9--9--|--x--x--9----9----9--x--|
--x---x---x---x----x--x--x--|--x--x--x----x----x--x--|
--x---7---7---7----7--7--7--|--x--x--7----6----6--x--|
----------------------------|------------------------|


  E  E  E   Q    E  E  E     E  E  E  E  E  E  E  E   
--------------------------|--------------------------|
--------------------------|--------------------------|
--x--9--9--11----9--9--9--|--9--9--9--9--9--9--9--9--|
--x--x--x---x----x--x--x--|--x--x--x--x--x--x--x--x--|
--x--6--7---7----7--7--7--|--7--7--7--7--7--7--7--7--|
--------------------------|--------------------------|


  E  E  E  E  E  E  E  E     E  E  E  E  E  E  E  E   
--------------------------|--------------------------|
--------------------------|--------------------------|
--9--9--9--9--9--9--9--9--|--------------------------|
--x--x--x--x--x--x--x--x--|--2--2--2--2--2--2--2--2--|
--7--7--7--7--7--7--7--7--|--2--2--2--2--2--2--2--2--|
--------------------------|--0--0--0--0--0--0--0--0--|


  E  E  E  E  E  E  E  E     E  E  E  E  E  E  E  E   
--------------------------|--------------------------|
--------------------------|--------------------------|
--------------------------|--2--2--2--2--2--2--2--2--|
--2--2--2--2--2--2--2--2--|--2--2--2--2--2--2--2--2--|
--2--2--2--2--2--2--2--2--|--0--0--0--0--0--0--0--0--|
--0--0--0--0--0--0--0--0--|--------------------------|


                                       PM PM PM                PM PM PM    
  E  E  E  E  E  E  E  E     Q    Q    E  E  Q       Q    Q    E  E  Q     
--------------------------|-----------------------|-----------------------|
--------------------------|-----------------------|-----------------------|
--2--2--2--2--2--2--2--2--|--6----6---------------|--4----4---------------|
--2--2--2--2--2--2--2--2--|--6----6----2--2--2----|--4----4----2--2--2----|
--0--0--0--0--0--0--0--0--|--4----4----2--2--2----|--2----2----2--2--2----|
--------------------------|------------0--0--0----|------------0--0--0----|


  E  E  E  E  E  E  E  E     E  E  E  E  E  E  E  E   
--------------------------|--------------------------|
--------------------------|--------------------------|
--2--2--2--2--2--2--2--2--|--2--2--2--2--2--2--2--2--|
--2--2--2--2--2--2--2--2--|--2--2--2--2--2--2--2--2--|
--0--0--0--0--0--0--0--0--|--0--0--0--0--0--0--0--0--|
--------------------------|--------------------------|


  E  E  E  E  E  E  E  E     E  E  E  E  E  E  E  E   
--------------------------|--------------------------|
--------------------------|--------------------------|
--------------------------|--------------------------|
--2--2--2--2--2--2--2--2--|--2--2--2--2--2--2--2--2--|
--2--2--2--2--2--2--2--2--|--2--2--2--2--2--2--2--2--|
--0--0--0--0--0--0--0--0--|--0--0--0--0--0--0--0--0--|


                                                                  PM PM 
PM    
  E  E  E  E  E  E  E  E     E  E  E  E  E  E  E  E     Q    Q    E  E  
Q     
--------------------------|--------------------------|-----------------------|
--------------------------|--------------------------|-----------------------|
--2--2--2--2--2--2--2--2--|--2--2--2--2--2--2--2--2--|--6----6---------------|
--2--2--2--2--2--2--2--2--|--2--2--2--2--2--2--2--2--|--6----6----2--2--2----|
--0--0--0--0--0--0--0--0--|--0--0--0--0--0--0--0--0--|--4----4----2--2--2----|
--------------------------|--------------------------|------------0--0--0----|


            PM PM PM                                                          
  Q    Q    E  E  Q       E  E  E  E  E  E  E  E     E  E  E  E  E  E  
E  E   
-----------------------|--------------------------|--------------------------|
-----------------------|--------------------------|--------------------------|
--4----4---------------|--2--2--2--2--2--2--2--2--|--2--2--2--2--2--2--2--2--|
--4----4----2--2--2----|--2--2--2--2--2--2--2--2--|--2--2--2--2--2--2--2--2--|
--2----2----2--2--2----|--0--0--0--0--0--0--0--0--|--0--0--0--0--0--0--0--0--|
------------0--0--0----|--------------------------|--------------------------|


  E  E  E  Q    E  Q       W                   W                 
------------------------|-------------------|-------------------|
------------------------|-------------------|-------------------|
--6--6--6--6----6-------|-------------------|-------------------|
--6--6--6--6----6--2----|--L----------------|--L----------------|
--4--4--4--4----4--2----|--L----------------|--L----------------|
-------------------0----|--L----------------|--L----------------|


  W                   W                   W                   W                 
-------------------|-------------------|-------------------|-------------------|
-------------------|-------------------|-------------------|-------------------|
-------------------|-------------------|-------------------|-------------------|
--L----------------|--L----------------|--L----------------|--L----------------|
--L----------------|--L----------------|--L----------------|--L----------------|
--L----------------|--L----------------|--L----------------|--L----------------|


  H.           E  E     Q    Q    Q    Q       E  E  E  E  E  E  E  E   
---------------------|----------------------|--------------------------|
---------------------|----------------------|--------------------------|
---------------x--x--|--9----9----9----9----|--4--4--4--4--4--4--4--4--|
--L------------x--x--|--9----9----9----9----|--4--4--4--4--4--4--4--4--|
--L------------x--x--|--7----7----7----7----|--2--2--2--2--2--2--2--2--|
--L------------------|----------------------|-----------------
comments
We did not receive enough feedback on this tab! Please rate:
1 2 3 4 5
2 comments total.
0 reply
Ample wrote on March 6 2009, 09:27 am

Did you just like copy the exact same thing from the other guy?

0 reply
aspeck wrote on August 9 2009, 03:39 pm

hard to follow

I want to post or [tab]
guest
You may want to rate the tab now too:
select rating
Please do not post tabs as comments. Select "correction" instead!