Oops, an error
Loading. Please wait.

Damned If I Do Ya Damned If I Dont Acoustic Tab

ver1
ver1

Whole song

More versions @911Tabs.com
20,049 views 12 this week
1 commentread comment
1 2 3 4 5
accurate
x 5
Autoscroll
+/-
esc
set tempo
stop
Contributor
NEW! There's an official Ultimate Guitar app which is ideal
for learning songs when you're away from computer. Get the app
WARNING: You are trying to view
                                    content from Ultimate-Guitar.com
                                    in an unauthorized application,
                                    which is prohibited.

                                    Please use an official Ultimate
                                    Guitar Tabs application for iPhone,
                                    iPad or Android to access legitimate
                                    chords, guitar, bass, and drum tabs
                                    from Ultimate-Guitar.com database.

                                    Type "ultimate guitar tabs" in Apple
                                    App Store's or Android Market's
                                    search to find the application.
half step down  
also sounds good standard

This is kind of my first tab so please make corrections if you think it needs any.....

*****some parts need intro in between the chorous and the verses just watch'hear the 
and figure out some of the parts

this is the video which kind of helped me if i missed something try and figure it out
http://www.youtube.com/watch?v=VTQz0LQ_uT0&feature=related

****STRUM ALL PARTS******
INTRO
e|----------------------------------------|
B|----------------------------------------|
G|--1----2-------4----------6-------4-----|
D|--2----2-------4----------6-------4-----|   )
A|--2------------2----------4-------2-----|   )
E|----------------------------------------|   )
                                              )> x2
e|------------------------------------------|   )
B|------------------------------------------|   )
G|--1----2-------6----------4---------------|   )
D|--2----2-------6----------4---------------|
A|--2------------4----------2---------------|
E|------------------------------------------|



VERE 1

e|----------------------------------------|
B|----------------------------------------|
G|-1--------2------4-------6--------------|
D|-2--------2------4-------6--------------|
A|-2---------------2-------4--------------|
E|----------------------------------------|
  I've fought it for a long time now


e|----------------------------------------|
B|----------------------------------------|
G|-1----------2------4--------6-----------|
D|-2----------2------4--------6-----------|
A|-2-----------------2--------4-----------|
E|----------------------------------------|
     While drowning in a river of denial


e|-------------------------------------2---------------------|
B|-------------------------------------3---------------------|
G|-2------2-------4-----------6--------2-------------------4-|
D|-2------2-------4-----------6----------------------------4-|
A|-1--------------2-----------4----------------------------2-|
E|-----------------------------------------------------------|
     I washed up, fixed up, picked up all my broken things


e|----------------------------------------|
B|----------------------------------------|
G|-1------2------4--------6---------------|
D|-2------2------4--------6---------------|
A|-2-------------2--------4---------------|
E|----------------------------------------|
   You left me police tape chalk line


e|----------------------------------------|
B|----------------------------------------|
G|-1----------2------4----------6---------|
D|-2----------2------4----------6---------|
A|-2-----------------2----------4---------|
E|----------------------------------------|
  Tequlia Shots in the dark scene of the crime


e|----------------------------------------|
B|----------------------------------------|
G|-1----------2---------4------------6----|
D|-2----------2---------4------------6----|
A|-2--------------------2------------4----|
E|----------------------------------------|
   Suburban living with a feeling that im giving up

e|--2--------------------------------------|
B|--3--------------------------------------|
G|--2--------------4-----------------------|
D|-----------------4-----------------------|
A|-----------------2-----------------------|
E|-----------------------------------------|
    Everything for you


<B>Chorous</B>

e|---------------------------------------------------|
B|---------------------------------------------------|
G|-1----------------2--------------------------------|
D|-2----------------2--------------------------------|
A|-2-------------------------------------------------|
E|---------------------------------------------------|
  Oh Oh Oh how was i supposed to know that you were


e|----------------------------------------|
B|----------------------------------------|
G|---6----------4-------------------------|
D|---6----------4-------------------------|
A|---4----------2-------------------------|
E|----------------------------------------|
   O-o-over me i think that i should go


e|----------------------------------------|
B|----------------------------------------|
G|---6-----------------------2------------|
D|---6-----------------------2------------|
A|---4------------------------------------|
E|----------------------------------------|
Somethings been telling me to leave but i wont


----------------------------------
Cuz im damned if i do ya damned if i dont


e|----------------------------------------|
B|----------------------------------------|
G|--1----2-------4----------6-------4-----|
D|--2----2-------4----------6-------4-----|
A|--2------------2----------4-------2-----|
E|----------------------------------------|

e|----------------------------------------|
B|----------------------------------------|
G|--1----2-------6----------4-------------|
D|--2----2-------6----------4-------------|
A|--2------------4----------2-------------|
E|----------------------------------------|

VERSE 2
e|----------------------------------------|
B|----------------------------------------|
G|-1------2----4-------6------------------|
D|-2------2----4-------6------------------|
A|-2-----------2-------4------------------|
E|----------------------------------------|
     It took a lot to take you home
e|----------------------------------------|
B|----------------------------------------|
G|-1--------2------4-------6--------------|
D|-2--------2------4-------6--------------|
A|-2---------------2-------4--------------|
E|----------------------------------------|
    One stupid call and I end up alone
e|----------------------------------------|
B|----------------------------------------|
G|-1--------2------4-------6--------------|
D|-2--------2------4-------6--------------|
A|-2---------------2-------4--------------|
E|----------------------------------------|
You're made up, dressed up messed up

e|--2--------------------------------------|
B|--3--------------------------------------|
G|--2------------------4-------------------|
D|---------------------4-------------------|
A|---------------------2-------------------|
E|-----------------------------------------|
  plans I set in stone

e|----------------------------------------|
B|----------------------------------------|
G|-1--------2------4---------6------------|
D|-2--------2------4---------6------------|
A|-2---------------2---------4------------|
E|----------------------------------------|
    But you made me do and I don't like

e|----------------------------------------|
B|----------------------------------------|
G|-1----------2-------------4---------6---|
D|-2----------2-------------4---------6---|
A|-2------------------------2---------4---|
E|----------------------------------------|
dancing in the alley with a streetrat night life


e|----------------------------------------|
B|----------------------------------------|
G|-1----2-----------------4-----------6---|
D|-2----2-----------------4-----------6---|
A|-2----------------------2-----------4---|
E|----------------------------------------|
Can't keep living with a feeling that I'm giving up

e|--2--------------------------------------|
B|--3--------------------------------------|
G|--2----------4---------------------------|
D|-------------4---------------------------|
A|-------------2---------------------------|
E|-----------------------------------------|
Everything for you

<B>Chorous</B>

------------------------------

Bridge:
e|--------------------------------------------------|
B|--------------------------------------------------|
G|-2---------1--------4--------------6--------2-----|
D|-2---------2--------4--------------6--------2-----|
A|-----------2--------2--------------4--------------|
E|--------------------------------------------------|
     Make a fool of myself when you hang around


e|-------------------------------------------------------|
B|-------------------------------------------------------|
G|--------------1--------4--------------6--------2-------|
D|--------------2--------4--------------6--------2-------|
A|--------------2--------2--------------4----------------|
E|-------------------------------------------------------|
   When you're gone I'm a match that's burning out


e|-----------------------------------------------------------------|
B|-----------------------------------------------------------------|
G|--------------1---------------4--------------6-------------2-----|
D|--------------2---------------4--------------6-------------2-----|
A|--------------2---------------2--------------4-------------------|
E|-----------------------------------------------------------------|
    Could have been, should have done what I said I was going to


e|---------------------------0-------------|
B|--1-------------------------1------------|Strum
G|--2--<<<<A minor--------------2----------|Once
D|--2-----------------------------2--------|
A|----------------------------------------|
E|----------------------------------------|
     But I never promised you


<B>Chorous</B>

e|---------------------------------------------------|
B|---------------------------------------------------|
G|-1----------------2--------------------------------|
D|-2----------------2--------------------------------|
A|-2-------------------------------------------------|
E|---------------------------------------------------|
  Oh Oh Oh how was i supposed to know that you were


e|----------------------------------------|
B|----------------------------------------|
G|---6----------4-------------------------|
D|---6----------4-------------------------|
A|---4----------2-------------------------|
E|----------------------------------------|
   O-o-over me i think that i should go


e|----------------------------------------|
B|----------------------------------------|
G|---6-----------------------2------------|
D|---6-----------------------2------------|
A|---4------------------------------------|
E|----------------------------------------|
Never took a fool to see the things that i wont

e|----------------------------------------|
B|----------------------------------------|
G|-------2--------------------------------|
D|-------2--------------------------------|
A|----------------------------------------|
E|----------------------------------------|
Damned if i do ya damned if i do ya

e|---------------------------------------------------|
B|---------------------------------------------------|
G|-1----------------2--------------------------------|
D|-2----------------2--------------------------------|
A|-2-------------------------------------------------|
E|---------------------------------------------------|
  Oh Oh Oh how was i supposed to know that you were


e|----------------------------------------|
B|----------------------------------------|
G|---6----------4-------------------------|
D|---6----------4-------------------------|
A|---4----------2-------------------------|
E|----------------------------------------|
   O-o-over me i think that i should go


e|----------------------------------------|
B|----------------------------------------|
G|---6-----------------------2------------|
D|---6-----------------------2------------|
A|---4------------------------------------|
E|----------------------------------------|
Somethings been telling me to leave but i wont

JUST TAP YOUR GUITAR ON THIS PART...vvvv

'Cause I'm damned if I do ya, damned if I d-d-d-
Damned if I do ya
Damned if I don't


e|----------------------------------------|
B|----------------------------------------|
G|--1----2-------4----------6-------4-----|
D|--2----2-------4----------6-------4-----|   )
A|--2------------2----------4-------2-----|   )
E|----------------------------------------|   )
                                              )> x2
e|------------------------------------------|   )
B|------------------------------------------|   )
G|--1----2-------6----------4---------------|   )
D|--2----2-------6----------4---------------|
A|--2------------4----------2---------------|
E|------------------------------------------|
comments
print report bad tab
1 comment total.
0 reply
billiejoestrong wrote on December 7 2009, 11:33 pm

dude ur chords are upside down haha. other than that it works

I want to post or [tab]
guest
You may want to rate the tab now too:
select rating
Please do not post tabs as comments. Select "correction" instead!