Oops, an error
Loading. Please wait.

Damned If I Do Ya Damned If I Dont Tab

ver3
ver3

Whole song

More versions @911Tabs.com
851 views 6 this week
no commentswrite comment
1 2 3 4 5
poor
x 1
Autoscroll
+/-
esc
set tempo
stop
Contributor
Difficulty
novice
WARNING: You are trying to view
                                    content from Ultimate-Guitar.com
                                    in an unauthorized application,
                                    which is prohibited.

                                    Please use an official Ultimate
                                    Guitar Tabs application for iPhone,
                                    iPad or Android to access legitimate
                                    chords, guitar, bass, and drum tabs
                                    from Ultimate-Guitar.com database.

                                    Type "ultimate guitar tabs" in Apple
                                    App Store's or Android Market's
                                    search to find the application.
Standard

I tried to tab it myself I hope it's ok, But comment if you find anything.

Updates:
20/06/12 - removed extra tab at that bottom.



Guitar 1:

e|------------------------------------------------------------------------|
B|------------------------------------------------------------------------|
G|-9-9-9-9-9-9-9-9-9-9-9-9-9-9-9-9----------------------------------------|
D|------------------------------------------------------------------------|
A|-7-7-7-7-7-7-7-7-7-7-7-7-7-7-7-7----------------------------------------|
E|------------------------------------------------------------------------|


e|-12-----12----12----12----12----12-----12-----14---------------------|
B|----12-----12----12----12----12----12-----12------12-----------------|
G|---------------------------------------------------------------------|x2
D|---------------------------------------------------------------------|
A|---------------------------------------------------------------------|
E|---------------------------------------------------------------------|

e|----------|-x-x--x-|---------------------------------------------------------|
B|----------|-x-x--x-|---------------------------------------------------------|
G|--2-2-----|-x-x--x-|-----------------77777777---44444444---------------------|
D|--2-2-----|-x-x--x-|-x6--------------77777777---44444444---------------------|
A|--0-0-----|-x-x--x-|-----------------55555555---22222222---------------------|
E|----------|-x-x--x-|---------------------------------------------------------|

e|------------------------------------------------------------------------|
B|------------------------------------------------------------------------|
G|----------22222222-66666666-44444444---66666666-22222222-22-------------|
D|-22222222-22222222-66666666-44444444---66666666-22222222-22-------------|
A|-22222222-00000000-44444444-22222222---44444444-00000000-00-------------|
E|-00000000---------------------------------------------------------------|

e|-12-----12----12----12----12----12-----12-----14---------------------|
B|----12-----12----12----12----12----12-----12------12-----------------|
G|---------------------------------------------------------------------|
D|---------------------------------------------------------------------|
A|---------------------------------------------------------------------|
E|---------------------------------------------------------------------|

e|----------|-x-x--x-|---------------------------------------------------------|
B|----------|-x-x--x-|---------------------------------------------------------|
G|--2-2-----|-x-x--x-|-----------------77777777---44444444---------------------|
D|--2-2-----|-x-x--x-|-x6--------------77777777---44444444---------------------|
A|--0-0-----|-x-x--x-|-----------------55555555---22222222---------------------|
E|----------|-x-x--x-|---------------------------------------------------------|

e|------------------------------------------------------------------------|
B|------------------------------------------------------------------------|
G|----------22222222-66666666-44444444---66666666-22222222-22-------------|
D|-22222222-22222222-66666666-44444444---66666666-22222222-22-------------|
A|-22222222-00000000-44444444-22222222---44444444-00000000-00-------------|
E|-00000000---------------------------------------------------------------|

e|---------------------------------------------------------------------------|
B|---------------------------------------------------------------------------|
G|-2-22-2-22-4-44-6-66-2-22-2-22-4-44-6-66-2-22-2-22-9-99-8-88-222222222-9~--|
D|-2-22-2-22-4-44-6-66-2-22-2-22-4-44-6-66-2-22-2-22-9-99-8-88-222222222-x~--|
A|-0-00-0-00-2-22-4-44-0-00-0-00-2-22-4-44-0-00-0-00-7-77-6-66-000000000-7~--|
E|---------------------------------------------------------------------------|

e|--x-x--x---x-x--x-x-x---|
B|--x-x--x---x-x--x-x-x---|
G|--x-x--x---x-x--x-x-x---|
D|--x-x--x---x-x--x-x-x---|
A|--x-x--x---x-x--x-x-x---|
E|--x-x--x---x-x--x-x-x---|






Guitar 2:
e|-----------------------------------------------|-------------------------|
B|-----------------------------------------------|-------------------------|
G|----22222-44-/-66-\-44-----22222--66-\-44---4--|--------2-2--------------|
D|-22-22222---------------22-22222---------------|-x2-----2-2--------------|
A|-22-00000-22-/-44-\-22--22-00000--44-\-22---2--|--------0-0--------------|
E|-00---------------------00---------------------|-------------------------|

e|------------------------------------------------------------------------|
B|------------------------------------------------------------------------|
G|------------------------------------------------------------------------|
D|-7777-6666-4444-6666---7777-6666-44444444---7777-6666-4444-6666---------|
A|-7777-7777-2222-4444---7777-7777-22222222---7777-7777-2222-7777---------|
E|------------------------------------------------------------------------|


e|------------------------------------------------------------------------|
B|------------------------------------------------------------------------|
G|------------------------------------------------------------------------|
D|-777777777-111111-------------------------------------------------------|
A|-555555555-222222-------------------------------------------------------|
E|------------------------------------------------------------------------|

e|------------------------------------------------------------------------|
B|------------------------------------------------------------------------|
G|-222------4444-6666-\-4-222------4444-6666-\-4-222------4444-6666-\-4---|
D|-222-2222-4444-6666-\-4-222-2222-4444-6666-\-4-222-2222-4444-6666-\-4---|
A|-000-2222-2222-4444-\-2-000-2222-2222-4444-\-2-000-2222-2222-4444-\-2---|
D|-----0000-------------------0000-------------------0000-----------------|

                                        
e|-12-----12----12----12----12----12-----12-----14---------------------|
B|----12-----12----12----12----12----12-----12------12-----------------|
G|---------------------------------------------------------------------|
D|---------------------------------------------------------------------|x3
A|---------------------------------------------------------------------|
E|---------------------------------------------------------------------|


e|--x-x--x---x-x--x-x-x---|--------------------|
B|--x-x--x---x-x--x-x-x---|--------------------|
G|--x-x--x---x-x--x-x-x---|--------------------|
D|--x-x--x---x-x--x-x-x---|--------------------|
A|--x-x--x---x-x--x-x-x---|--------------------|
E|--x-x--x---x-x--x-x-x---|--------------------|
                             
e|-----------------------------------------------|-------------------------|
B|-----------------------------------------------|-------------------------|
G|----22222-44-/-66-\-44-----22222--66-\-44---4--|--------2-2--------------|
D|-22-22222---------------22-22222---------------|--------2-2--------------|
A|-22-00000-22-/-44-\-22--22-00000--44-\-22---2--|--------0-0--------------|
E|-00---------------------00---------------------|-------------------------|

e|------------------------------------------------------------------------|
B|------------------------------------------------------------------------|
G|------------------------------------------------------------------------|
D|-7777-6666-4444-6666---7777-6666-44444444---7777-6666-4444-6666---------|
A|-7777-7777-2222-4444---7777-7777-22222222---7777-7777-2222-7777---------|
E|------------------------------------------------------------------------|


e|------------------------------------------------------------------------|
B|------------------------------------------------------------------------|
G|------------------------------------------------------------------------|
D|-777777777-111111-------------------------------------------------------|
A|-555555555-222222-------------------------------------------------------|
E|------------------------------------------------------------------------|


e|------------------------------------------------------------------------|
B|------------------------------------------------------------------------|
G|-222------4444-6666-\-4-222------4444-6666-\-4-222------4444-6666-\-4---|
D|-222-2222-4444-6666-\-4-222-2222-4444-6666-\-4-222-2222-4444-6666-\-4---|
A|-000-2222-2222-4444-\-2-000-2222-2222-4444-\-2-000-2222-2222-4444-\-2---|
E|-----0000-------------------0000-------------------0000-----------------|


e|-12-----12----12----12----12----12-----12-----14---------------------|
B|----12-----12----12----12----12----12-----12------12-----------------|
G|---------------------------------------------------------------------|
D|---------------------------------------------------------------------|x3
A|---------------------------------------------------------------------|
E|---------------------------------------------------------------------|

e|------------------------------------------------------------------------|
B|------------------------------------------------------------------------|
G|-9-99-9-99-11-1111-13-1313--9-99-9-99-13-1313-11-1111-------------------|
D|------------------------------------------------------------------------|
A|-7-77-7-77-9--9-9--11-1111--7-77-7-77-11-1111-9--9-9--------------------|
E|------------------------------------------------------------------------|

e|------------------------------------------------------------------------|
B|------------------------------------------------------------------------|
G|-9-99-9-99-11-1111-13-1313---9------------------------------------------|
D|------------------------------------------------------------------------|
A|-7-77-7-77-9--9-9--11-1111---7------------------------------------------|
E|------------------------------------------------------------------------|

e|--x-x--x---x-x--x-x-x---|
B|--x-x--x---x-x--x-x-x---|
G|--x-x--x---x-x--x-x-x---|x2
D|--x-x--x---x-x--x-x-x---|
A|--x-x--x---x-x--x-x-x---|
E|--x-x--x---x-x--x-x-x---|


e|-12-----12----12----12----12----12-----12-----14---------------------|
B|----12-----12----12----12----12----12-----12------12-----------------|
G|---------------------------------------------------------------------|
D|---------------------------------------------------------------------|x8
A|---------------------------------------------------------------------|
E|---------------------------------------------------------------------|


e|-----------------------------------------------|-------------------------|
B|-----------------------------------------------|-------------------------|
G|----22222-44-/-66-\-44-----22222--66-\-44---4--|-------------------------|
D|-22-22222---------------22-22222---------------|--------2-2--------------|
A|-22-00000-22-/-44-\-22--22-00000--44-\-22---2--|--------2-2--------------|
E|-00---------------------00---------------------|--------0-0--------------|
comments
We did not receive enough feedback on this tab! Please rate:
print report bad tab
1 2 3 4 5
I want to post or [tab]
guest
You may want to rate the tab now too:
select rating
Please do not post tabs as comments. Select "correction" instead!