Oops, an error
Loading. Please wait.

Dear Maria Count Me In Tab

ver3
ver3

Interactive

More versions @911Tabs.com
118,144 views 322 this week
3 commentsread comments
1 2 3 4 5
excellent!
x 30
Autoscroll
+/-
esc
set tempo
stop
Contributor
Difficulty
Tuning
novice
D A D G B E
Hey! There's an official Ultimate Guitar app which is ideal
for learning songs when you're away from computer. Get the app
WARNING: You are trying to view
                                    content from Ultimate-Guitar.com
                                    in an unauthorized application,
                                    which is prohibited.

                                    Please use an official Ultimate
                                    Guitar Tabs application for iPhone,
                                    iPad or Android to access legitimate
                                    chords, guitar, bass, and drum tabs
                                    from Ultimate-Guitar.com database.

                                    Type "ultimate guitar tabs" in Apple
                                    App Store's or Android Market's
                                    search to find the application.
Dear Maria, Count Me In (Guitar Tab)
-------------------------------------


Intro
------


e|---------------------------------------------------------------------------------|
B|---------------------------------------------------------------------------------|
G|---------------------------------------------------------------------------------|
D|---------------------------------------------------------------------------------|
A|--9999999999999999-5555555555555555-12121212121212121212121212121212-7777777777--|
D|--9999999999999999-5555555555555555-12121212121212121212121212121212-7777777777--|
PM  ................ ................ ................................ ........


Pre-Verse
----------


e|----------|---------------------------------|------------------------------------|
B|----------|---------------------------------|------------------------------------|
G|--6-6-7-7-|-111111111111111-1212-1111-99-77-|-111111111111111-1212-1111-99-1414--|
D|--x-x-x-x-|-x-x-x-x-x-x-x-x--x-x--x-x-xx-xx-|-x-x-x-x-x-x-x-x--x-x--x-x-xx--x-x--|
A|--4-4-5-5-|-9-9-9-9-9-9-9-9-1010--9-9-77-55-|-9-9-9-9-9-9-9-9-1010--9-9-77-1212--|
D|----------|---------------------------------|------------------------------------|


e|----------------------------------|-------------------------------|
B|----------------------------------|-------------------------------|
G|--111111111111111-1212-1111-99-77-|-99999999-141414141414141414~~-|
D|--x-x-x-x-x-x-x-x--x-x--x-x-xx-xx-|-xxxxxxxx--x-x-x-x-x-x-x-x-x---|
A|--9-9-9-9-9-9-9-9-1010--9-9-77-55-|-77777777-121212121212121212~~-|
D|----------------------------------|-------------------------------|


Verse
------


e|-------------------------------------------------------------------------|
B|-------------------------------------------------------------------------|
G|-------------------------------------------------------------------------|
D|--(14)~~~~~~~~~~~~-5~---------------2~---------------7~------------------|
A|----x--------------5~55555555555555-2~22222222222222-7~7777777777777777--|
D|--(12)~~~~~~~~~~~~-5~55555555555555-2~22222222222222-7~7777777777777777--|
PM                     ..............   ..............   ..............


e|-----------------------------------------------------------------------|
B|-----------------------------------------------------------------------|
G|-----------------------------------------------------------------------|
D|--0~---------------5~---------------2~---------------7~----------------|
A|--0~00000000000000-5~55555555555555-2~22222222222222-7~77777788888888--|
D|--0~00000000000000-5~55555555555555-2~22222222222222-7~77777788888888--|
 |PM  ..............   ..............   ..............   ..............  |
 |                                                                       |
 |                                                                       |
e|-----------------------------------------------------------------------|
B|-----------------------------------------------------------------------|
G|--7-7-7-7-7-7-7-7777-7-7-7-7-7-7-7777-7-7-7-7-7-7-7776666777799999999--|
D|--x-x-x-x-x-x-x-xxxx-x-x-x-x-x-x-xxxx-x-x-x-x-x-x-xxxxxxxxxxxxxxxxxxx--|
A|--5-5-5-5-5-5-5-5555-5-5-5-5-5-5-5555-5-5-5-5-5-5-5554444555577777777--|
D|-----------------------------------------------------------------------|


Chorus
------


e|-----------------------------------------------------------------------|
B|-----------------------------------------------------------------------|
G|-----------------------------------------------------------------------|
D|--9999999999999999-5555555555555555-0000000000000000-7777777777777777--|
A|--9999999999999999-5555555555555555-0000000000000000-7777777777777777--|
D|--9999999999999999-5555555555555555-0000000000000000-7777777777777777--|
 |                                                                       |
 |                                                                       |     x2
 |                                                                       |
e|-----------------------------------------------------------------------|
B|-----------------------------------------------------------------------|
G|--1111111112121212-1414141412121212-7777777799999999-6666666666666666--|
D|---x-x-x-x-x-x-x-x--x-x-x-x-x-x-x-x-xxxxxxxxxxxxxxxx-xxxxxxxxxxxxxxxx--|
A|---9-9-9-910101010-1212121210101010-5555555577777777-4444444444444444--|
D|-----------------------------------------------------------------------|


Pre-Verse
----------


e|----------------------------------|------------------------------------|
B|----------------------------------|------------------------------------|
G|--111111111111111-1212-1111-99-77-|-111111111111111-1212-1111-99-1414--|
D|--x-x-x-x-x-x-x-x--x-x--x-x-xx-xx-|-x-x-x-x-x-x-x-x--x-x--x-x-xx--x-x--|
A|--9-9-9-9-9-9-9-9-1010--9-9-77-55-|-9-9-9-9-9-9-9-9-1010--9-9-77-1212--|
D|----------------------------------|------------------------------------|


e|----------------------------------|-------------------------------|
B|----------------------------------|-------------------------------|
G|--111111111111111-1212-1111-99-77-|-99999999-141414141414141414~~-|
D|--x-x-x-x-x-x-x-x--x-x--x-x-xx-xx-|-xxxxxxxx--x-x-x-x-x-x-x-x-x---|
A|--9-9-9-9-9-9-9-9-1010--9-9-77-55-|-77777777-121212121212121212~~-|
D|----------------------------------|-------------------------------|


Verse
------


e|-------------------------------------------------------------------------|
B|-------------------------------------------------------------------------|
G|-------------------------------------------------------------------------|
D|--(14)~~~~~~~~~~~~-5~---------------2~---------------7~------------------|
A|----x--------------5~55555555555555-2~22222222222222-7~7777777777777777--|
D|--(12)~~~~~~~~~~~~-5~55555555555555-2~22222222222222-7~7777777777777777--|
PM                     ..............   ..............   ................


e|-----------------------------------------------------------------------|
B|-----------------------------------------------------------------------|
G|-----------------------------------------------------------------------|
D|----0x-------------5~--------------------------------------------------|
A|----0x-------------5~55555555555555-2~---------------7~-------8~-------|
D|--0-0x-----------0-5~55555555555555-2----------------7~-------8~-------|
 |PM.              .   ..............                                    |
 |                                                                       |
 |                                                                       |
e|-----------------------------------------------------------------------|
B|-----------------------------------------------------------------------|
G|-------------------1414141412121111------------------------------------|
D|--------------------x-x-x-x-x-x-x-x------------------------------------|
A|-------------------121212121010-9-9------------------------------------|
D|-----------------------------------------------------------------------|


Chorus
------


e|-----------------------------------------------------------------------|
B|-----------------------------------------------------------------------|
G|-----------------------------------------------------------------------|
D|--9999999999999999-5555555555555555-0000000000000000-7777777777777777--|
A|--9999999999999999-5555555555555555-0000000000000000-7777777777777777--|
D|--9999999999999999-5555555555555555-0000000000000000-7777777777777777--|
 |                                                                       |
 |                                                                       |     x2
 |                                                                       |
e|-----------------------------------------------------------------------|
B|-----------------------------------------------------------------------|
G|--1111111112121212-1414141412121212-7777777799999999-6666666666666666--|
D|---x-x-x-x-x-x-x-x--x-x-x-x-x-x-x-x-xxxxxxxxxxxxxxxx-xxxxxxxxxxxxxxxx--|
A|---9-9-9-910101010-1212121210101010-5555555577777777-4444444444444444--|
D|-----------------------------------------------------------------------|


Bridge
-------


e|----------------------------|
B|----------------------------|
G|--x-7~~~~~~~~~~-------------|
D|--x-7~~~~~~~~~~-------------|
A|--x-5~~~~~~~~~~-------------|
D|----------------------------|
 |                            |
 |                            |
 |                            |
e|----------------------------|
B|----------------------------|
G|----------------------------|
D|--------x7--4--5--x5--7--0--|
A|--------x7--4--5--x5--7--0--|
D|--------x7--4--5--x5--7--0--|


e|----------------------------|
B|----------------------------|
G|----------------------------|
D|--------x7--4--5--x5--7--0--|     X3
A|--------x7--4--5--x5--7--0--|
D|--------x7--4--5--x5--7--0--|


e|----------------------------|
B|----------------------------|
G|----------------------------|
D|----7~~~~~~~~~~-------------|
A|--x-5~~~~~~~~~~-------------|
D|----------------------------|
 |                            |
 |                            |
 |                            |
e|----------------------------|---------------------------|
B|----------------------------|---------------------------|
G|----------------------------|---------------------------|
D|---(0)--x7--4--5--x5--7--0--|--x7--4--------------------|
A|---(0)--x7--4--5--x5--7--0--|--x7--4--5555555577777777--|
D|---(0)--x7--4--5--x5--7--0--|--x7--4--5555555577777777--|


Chorus (Outro)
---------------


e|-----------------------------------------------------------------------|
B|-----------------------------------------------------------------------|
G|-----------------------------------------------------------------------|
D|-x9-9\0------------5555555555555555-0000000000000000-7777777777777777--|
A|-x9-9\0------------5555555555555555-0000000000000000-7777777777777777--|
D|-x9-9\0------------5555555555555555-0000000000000000-7777777777777777--|
 |                                                                       |
 |                                                                       |
 |                                                                       |
e|-----------------------------------------------------------------------|
B|-----------------------------------------------------------------------|
G|-------------------1414141412121212-7777777799999999-6666666666666666--|
D|--------------------x-x-x-x-x-x-x-x-xxxxxxxxxxxxxxxx-xxxxxxxxxxxxxxxx--|
A|-------------------1212121210101010-5555555577777777-4444444444444444--|
D|-----------------------------------------------------------------------|


e|-----------------------------------------------------------------------|
B|-----------------------------------------------------------------------|
G|-----------------------------------------------------------------------|
D|--9999999999999999-5555555555555555-0000000000000000-7777777777777775~-|
A|--9999999999999999-5555555555555555-0000000000000000-7777777777777775~-|
D|--9999999999999999-5555555555555555-0000000000000000-7777777777777775~-|
 |                                                                       |
 |                                                                       |
 |                                                                       |
e|-----------------------------------------------------------------------|
B|-----------------------------------------------------------------------|
G|-----------------------------------------------------------------------|
D|---7--/19---18---14----\---12---b--13--p--11----11br--9----6--------7~-|
A|-----------------------------------------------------------------------|
D|-----------------------------------------------------------------------|
comments
print report bad tab
3 comments total. show 1 bad comment
+1 reply
Aurigo wrote on August 28 2009, 02:29 pm

both verses, rhythm guitar.
your chords are on the wrong strings.

0 reply
AFI_Jade_Puget wrote on September 4 2009, 02:17 pm

wow, i didnt actually see that lol, thanks

I want to post or [tab]
guest
You may want to rate the tab now too:
select rating
Please do not post tabs as comments. Select "correction" instead!