Oops, an error
Loading. Please wait.

Fools Holiday Tab

1,966 views 30 this week
no commentswrite comment
1 2 3 4 5
excellent!
x 4
Autoscroll
+/-
esc
set tempo
stop
Contributor
Tuning
D A D G B E
WARNING: You are trying to view
                                    content from Ultimate-Guitar.com
                                    in an unauthorized application,
                                    which is prohibited.

                                    Please use an official Ultimate
                                    Guitar Tabs application for iPhone,
                                    iPad or Android to access legitimate
                                    chords, guitar, bass, and drum tabs
                                    from Ultimate-Guitar.com database.

                                    Type "ultimate guitar tabs" in Apple
                                    App Store's or Android Market's
                                    search to find the application.
All Time Low - Fool's Holiday Guitar Tab
from Track 2 of Punk Goes Christmas (2013)
by Scalar719

Tuning: Drop D


[Intro]

Guitar 1 (lead)
e|------6-----6-----6----------6-----6-----6---------8------8------8---------|
B|--------8-----8-----8----------8-----8-----8---------9------9------11-8----|
G|-8--8-----8-----8-----8-7--7-----7-----7-----7-5--5----10-----10--------8--|
D|---------------------------------------------------------------------------|
A|---------------------------------------------------------------------------|
D|---------------------------------------------------------------------------|

e|---8------8----------------------------------------------------------------|
B|-----9------9---------9----------------------------------------------------|
G|-5-----10-----10-8-10------------------------------------------------------|
D|---------------------------------------------------------------------------|
A|---------------------------------------------------------------------------|
D|---------------------------------------------------------------------------|


Guitar 2 (Rhythm)
e|---------------------------------------------------------------------------|
B|---------------------------------------------------------------------------|
G|---------------------------------------------------------------------------|
D|-1--1-1-1-1-1-1-1-3-4-5--5-5-5-5-5-5-5-5-4-3--3-3-3-3-3-3-3-4-5-6----------|
A|-1--1-1-1-1-1-1-1-3-4-5--5-5-5-5-5-5-5-5-4-3--3-3-3-3-3-3-3-4-5-6----------|
D|-1--1-1-1-1-1-1-1-3-4-5--5-5-5-5-5-5-5-5-4-3--3-3-3-3-3-3-3-4-5-6----------|

e|---------------------------------------------------------------------------|
B|---------------------------------------------------------------------------|
G|---------------------------------------------------------------------------|
D|-6-6-6-6-6-6-6-x-x---------------------------------------------------------|
A|-6-6-6-6-6-6-6-x-x---------------------------------------------------------|
D|-6-6-6-6-6-6-6-x-x---------------------------------------------------------|



[Verse]

Guitar 1 (lead) (Clean)
e|---------------------------------------------------------------------------|
B|---------------------------------------------------------------------------|
G|-----3-----3-----3------------3-----3-----3------------5-----5-----5-------|
D|-------5-----5-----5------------5-----5-----5------------6-----6-----6-----|
A|-6-6-----6-----6-----6----5-5-----5-----5-----5----3-3-----8-----8-----8---|
D|---------------------------------------------------------------------------|

e|---------------------------------------------------------------------------|
B|-------------------------3-4-----------------------------------------------|
G|-----------3-----3-----5-----------(x2)------------------------------------|
D|-------------5-----5-------------------------------------------------------|
A|---------6-----6-----6-----------------------------------------------------|
D|-3-4-5-6-------------------------------------------------------------------|


Guitar 2 (Rhythm)

(Empty for first half)

e|---------------------------------------------------------------------------|
B|---------------------------------------------------------------------------|
G|-8--8--8--8-10-11-12--12--12--12-12-11-10--10--10--10-11-12-13--13--13-----|
D|-8--8--8--8-10-11-12--12--12--12-12-11-10--10--10--10-11-12-13--13--13-----|
A|-6--6--6--6-8--9--10--10--10--10-10-9--8---8---8---8--9--10-11--11--11-----|
D|---------------------------------------------------------------------------|

e|---------------------------------------------------------------------------|
B|---------------------------------------------------------------------------|
G|-13-13-13------------------------------------------------------------------|
D|-13-13-13------------------------------------------------------------------|
A|-11-11-11------------------------------------------------------------------|
D|---------------------------------------------------------------------------|


[Pre-Chorus 1]

(Empty)


[Chorus]

Guitar 1 (lead) & Guitar 2 (Rhythm)
e|---------------------------------------------------------------------------|
B|---------------------------------------------------------------------------|
G|---------------------------------------------------------------------------|
D|-1-1-1-1-1-1-8-8-8-8-8-8-3-3-3-3-3-3-6-6-6-6-6-6---------------------------|
A|-1-1-1-1-1-1-8-8-8-8-8-8-3-3-3-3-3-3-6-6-6-6-6-6---------------------------|
D|-1-1-1-1-1-1-8-8-8-8-8-8-3-3-3-3-3-3-6-6-6-6-6-6---------------------------|

e|---------------------------------------------------------------------------|
B|---------------------------------------------------------------------------|
G|---------------------------------------------------------------------------|
D|-1-1-1-1-1-1-8-8-8-8-8-8-7-6-6-6-6-6-6-6-6-6-6-x-x-------------------------|
A|-1-1-1-1-1-1-8-8-8-8-8-8-7-6-6-6-6-6-6-6-6-6-6-x-x-------------------------|
D|-1-1-1-1-1-1-8-8-8-8-8-8-7-6-6-6-6-6-6-6-6-6-6-x-x-------------------------|

e|---------------------------------------------------------------------------|
B|---------------------------------------------------------------------------|
G|---------------------------------------------------------------------------|
D|-1-1-1-1-1-1-8-8-8-8-8-8-3-3-3-3-3-3-6-6-6-6-6-6---------------------------|
A|-1-1-1-1-1-1-8-8-8-8-8-8-3-3-3-3-3-3-6-6-6-6-6-6---------------------------|
D|-1-1-1-1-1-1-8-8-8-8-8-8-3-3-3-3-3-3-6-6-6-6-6-6---------------------------|

e|---------------------------------------------------------------------------|
B|---------------------------------------------------------------------------|
G|---------------------------------------------------------------------------|
D|-1-1-1-1-1-1-8-8-8-8-8-8-7-6-----------------------------------------------|
A|-1-1-1-1-1-1-8-8-8-8-8-8-7-6-----------------------------------------------|
D|-1-1-1-1-1-1-8-8-8-8-8-8-7-6-----------------------------------------------|

e|---------------------------------------------------------------------------|
B|---------------------------------------------------------------------------|
G|-8-10-13-------------------------------------------------------------------|
D|-8-10-13-------------------------------------------------------------------|
A|-6-8--11-------------------------------------------------------------------|
D|---------------------------------------------------------------------------|


[Repeat Verse]


[Pre-Chorus 2]

Guitar 1 (lead) & Guitar 2 (Rhythm)
e|---------------------------------------------------------------------------|
B|---------------------------------------------------------------------------|
G|---------------------------------------------------------------------------|
D|-3-3-3-3-3-3-1-1-1-1-1-1-8-8-8-8-8-8---------------------------------------|
A|-3-3-3-3-3-3-1-1-1-1-1-1-8-8-8-8-8-8---------------------------------------|
D|-3-3-3-3-3-3-1-1-1-1-1-1-8-8-8-8-8-8-10-8~---------------------------------|
[pm. . . . . . . . . . . . . . . . . .]



[Repeat Chorus]


[Bridge & Solo]

Guitar 1 (lead)

e|------6-----6-----6----------6-----6-----6---------8------8------8---------|
B|--------8-----8-----8----------8-----8-----8---------9------9------11-8----|
G|-8--8-----8-----8-----8-7--7-----7-----7-----7-5--5----10-----10--------8--|
D|---------------------------------------------------------------------------|
A|---------------------------------------------------------------------------|
D|---------------------------------------------------------------------------|

e|---8------8---------------------15-------------15--------------------15----|
B|-----9------9---------9------------16----16-18----16----------15~-------16-|
G|-5-----10-----10-8-10---15~--15-------15-------------12-13-15-----15-------|
D|---------------------------------------------------------------------------|
A|---------------------------------------------------------------------------|
D|---------------------------------------------------------------------------|

e|-------------------------------------------------------------------------15| 
B|---20-18-20-16----20-19-18~----------------------------------15-16-15-18---|
G|15-------------15--------------------------------------15-17---------------|
D|-------------------------------------15-17-18-15-17-18---------------------|
A|----------------------------15-17-18---------------------------------------|
D|---------------------------------------------------------------------------|

e|-16-16-16-16-16-16-15-15-15-15-15-15-16-16-16-16-16-16\--------------------|
B|---------------------------------------------------------------------------|
G|---------------------------------------------------------------------------|
D|---------------------------------------------------------------------------|
A|---------------------------------------------------------------------------|
D|---------------------------------------------------------------------------|


Guitar 2 (Rhythm)
e|---------------------------------------------------------------------------|
B|---------------------------------------------------------------------------|
G|---------------------------------------------------------------------------|
D|-1--1-1-1-1-1-1-1-3-4-5--5-5-5-5-5-5-5-5-4-3--3-3-3-3-3-3-3-4-5-6----------|
A|-1--1-1-1-1-1-1-1-3-4-5--5-5-5-5-5-5-5-5-4-3--3-3-3-3-3-3-3-4-5-6----------|
D|-1--1-1-1-1-1-1-1-3-4-5--5-5-5-5-5-5-5-5-4-3--3-3-3-3-3-3-3-4-5-6----------|

e|---------------------------------------------------------------------------|
B|---------------------------------------------------------------------------|
G|---------------------------------------------------------------------------|
D|-6-6-6-6-6-6-6-x-x--------------------------(x2)---------------------------|
A|-6-6-6-6-6-6-6-x-x---------------------------------------------------------|
D|-6-6-6-6-6-6-6-x-x---------------------------------------------------------|


[Final Chorus]

(Empty for 8 bars)

Guitar 1 (lead) & Guitar 2 (Rhythm)
e|---------------------------------------------------------------------------|
B|---------------------------------------------------------------------------|
G|---------------------------------------------------------------------------|
D|-1-1-1-1-1-1-8-8-8-8-8-8-3-3-3-3-3-3-6-6-6-6-6-6---------------------------|
A|-1-1-1-1-1-1-8-8-8-8-8-8-3-3-3-3-3-3-6-6-6-6-6-6---------------------------|
D|-1-1-1-1-1-1-8-8-8-8-8-8-3-3-3-3-3-3-6-6-6-6-6-6---------------------------|

e|---------------------------------------------------------------------------|
B|---------------------------------------------------------------------------|
G|---------------------------------------------------------------------------|
D|--------1-8-8-8-8-8-8-7-6-6-6-6-6-6-6-6-6-6-x-x----------------------------|
A|--------1-8-8-8-8-8-8-7-6-6-6-6-6-6-6-6-6-6-x-x----------------------------|
D|--------1-8-8-8-8-8-8-7-6-6-6-6-6-6-6-6-6-6-x-x----------------------------|


Guitar 1 (lead)
e|----------------15~--------------------------------------------------------|
B|----------16-18------------/18-15-------------------16~----------15-16-----|
G|----15-----------------15---------15-------------17--------17----------17--|
D|-17----17-----------15---15----------15-18-15-18--------18----18-----------|
A|---------------------------------------------------------------------------|
D|---------------------------------------------------------------------------|

e|-------------------15-------------/15--------------------------------------|
B|-------------16-18--------------------18-16~------------------------16-----|
G|----------15-------------15----17---------------17----17-15------17----17--|
D|----------------------17----17---------------18----18-------18~------------|
A|---------------------------------------------------------------------------|
D|---------------------------------------------------------------------------|

e|----15-------------------15------------------------------------------------|
B|-18----16----15-------------18-16~-----------------------------------------|
G|----------15----15-15/17---------------------------------------------------|
D|---------------------------------------------------------------------------|
A|---------------------------------------------------------------------------|
D|---------------------------------------------------------------------------|


Guitar 2 (Rhythm)
e|---------------------------------------------------------------------------|
B|---------------------------------------------------------------------------|
G|---------------------------------------------------------------------------|
D|-1-1-1-1-1-1-8-8-8-8-8-8-3-3-3-3-3-3-6-6-6-6-6-6---------------------------|
A|-1-1-1-1-1-1-8-8-8-8-8-8-3-3-3-3-3-3-6-6-6-6-6-6---------------------------|
D|-1-1-1-1-1-1-8-8-8-8-8-8-3-3-3-3-3-3-6-6-6-6-6-6---------------------------|

e|---------------------------------------------------------------------------|
B|---------------------------------------------------------------------------|
G|---------------------------------------------------------------------------|
D|--------1-8-8-8-8-8-8-7-6-6-6-6-6-6-6-6-6-6-5-3----------------------------|
A|--------1-8-8-8-8-8-8-7-6-6-6-6-6-6-6-6-6-6-5-3----------------------------|
D|--------1-8-8-8-8-8-8-7-6-6-6-6-6-6-6-6-6-6-5-3----------------------------|

e|---------------------------------------------------------------------------|
B|---------------------------------------------------------------------------|
G|---------------------------------------------------------------------------|
D|-10-10-10-10-10-10-8-8-8-8-8-8-7-6-----------------------------------------|
A|-10-10-10-10-10-10-8-8-8-8-8-8-7-6-----------------------------------------|
D|-10-10-10-10-10-10-8-8-8-8-8-8-7-6-----------------------------------------|


MERRY CHRISTMAS! :D



Legend: 
/    = slide up
\    = slide down
~    = virbato
.    = palm mute
b    = bend string
r    = release bend
x    = muted string
=    = Tremolo picking
*    = artificial harmonic
(x)  = natural harmonic
comments
print report bad tab
I want to post or [tab]
guest
You may want to rate the tab now too:
select rating
Please do not post tabs as comments. Select "correction" instead!