Oops, an error
Loading. Please wait.

For Baltimore Tab

ver2
ver2

Whole song

Interactive

More versions @911Tabs.com
14,147 views 72 this week
3 commentsread comments
1 2 3 4 5
excellent!
x 5
Autoscroll
+/-
esc
set tempo
stop
Contributor
Difficulty
Tuning
intermediate
D# G# C# F# A# D#
Hey! There's an official Ultimate Guitar app which is ideal
for learning songs when you're away from computer. Get the app
WARNING: You are trying to view
                                    content from Ultimate-Guitar.com
                                    in an unauthorized application,
                                    which is prohibited.

                                    Please use an official Ultimate
                                    Guitar Tabs application for iPhone,
                                    iPad or Android to access legitimate
                                    chords, guitar, bass, and drum tabs
                                    from Ultimate-Guitar.com database.

                                    Type "ultimate guitar tabs" in Apple
                                    App Store's or Android Market's
                                    search to find the application.
A great song from All Time Low featuring on their upcoming album Don't Panic.
This is completely tabbed by ear so there may be mistakes or variations, feel free 
to let me know if you find any.

This song is tuned down ½ step, easy to do either use an online tuner or if you 
have a capo put on first fret and tune to standard then remove the capo and voila 
tuned to 1.2 step down!

Guitar 1 (Lead)
Verse 1 (Clean)
(0.00 – 0.23)
e---------------0-1-0-------------0-1-0--------------0-1-0-----------|
B-----1------1----------1-------1----------0-------1--------3--------|
G-----0-----------------2------------------0----------------0--------|
D-----2-----------------2------------------2----------------5--------|
A-----3-----------------0------------------2----------------5--------|
E------------------------------------------0-------------------------|
(x2)

Verse 1 (Distorted)
(0.23 - 0.45)
P.M.....................            .....................
e-----------------------------------------------------------------------|
B------------------------------------1--1-1--1--1-1-1--1----------------|
G----5--5-5--5--5-5-5--5-------------2--2-2--2--2-2-2--2----------------|
D----5--5-5--5--5-5-5--5---2--2h3p2--2--2-2--2--2-2-2--2--2--2h3p2------|
A----3--3-3--3--3-3-3--3-3-----------0--0-0--0--0-0-0--0----------------|
E-----------------------------------------------------------------------|

P.M.....................            ..............................
e-----------------------------------------------------------------------|
B-----------------------------------------------------------------------|
G-----------------------------------------------------------------------|
D----2--2-2--2--2-2-2--2---2--2h3p2--5--5-5--5--5-5-5--5--5-5-5--5------|
A----2--2-2--2--2-2-2--2-3-----------5--5-5--5--5-5-5--5--5-5-5--5------|
E----0--0-0--0--0-0-0--0-------------3--3-3--3--3-3-3--3--3-3-3--3------|

P.M.....................            ....................
e-----------------------------------------------------------------------|
B------------------------------------1--1-1--1--1-1-1--1----------------|
G----5--5-5--5--5-5-5--5-------------2--2-2--2--2-2-2--2----------------|
D----5--5-5--5--5-5-5--5---2--2h3p2--2--2-2--2--2-2-2--2--2--2h3p2------|
A----3--3-3--3--3-3-3--3-3-----------0--0-0--0--0-0-0--0----------------|
E-----------------------------------------------------------------------|

P.M.....................                 
e-----------------------------------------------------------------------|
B-----------------------------------------------------------------------|
G-----------------------------------------------------------------------|
D----2--2-2--2--2-2-2--2---2--2h3p2--5~-----------------------5---------|
A----2--2-2--2--2-2-2--2-3-----------5~-----------------------5---------|
E----0--0-0--0--0-0-0--0-------------3~-----------------------3---------|

Chorus 1 (Distorted)
(0.45 - 1.15)
e-----------------------------------------------------------------------|
B----------------------------------1--1-1--1-1-1--1-1-1--1-1-1----------|
G----5--5-5--5-5-5--5-5-5--5-5-5---2--2-2--2-2-2--2-2-2--2-2-2----------|
D----5--5-5--5-5-5--5-5-5--5-5-5---2--2-2--2-2-2--2-2-2--2-2-2----------|
A----3--3-3--3-3-3--3-3-3--3-3-3---0--0-0--0-0-0--0-0-0--0-0-0----------|
E-----------------------------------------------------------------------|

e-----------------------------------------------------------------------|
B-----------------------------------------------------------------------|
G-----------------------------------------------------------------------|
D----2--2-2--2-2-2--2-2-2--2-2-2---5--5-5--5-5-5--5-5-5--5-5-5----------|
A----2--2-2--2-2-2--2-2-2--2-2-2---5--5-5--5-5-5--5-5-5--5-5-5----------|
E----0--0-0--0-0-0--0-0-0--0-0-0---3--3-3--3-3-3--3-3-3--3-3-3----------|

e-----------------------------------------------------------------------|
B----------------------------------1--1-1--1-1-1--1-1-1--1-1-1----------|
G----5--5-5--5-5-5--5-5-5--5-5-5---2--2-2--2-2-2--2-2-2--2-2-2----------|
D----5--5-5--5-5-5--5-5-5--5-5-5---2--2-2--2-2-2--2-2-2--2-2-2----------|
A----3--3-3--3-3-3--3-3-3--3-3-3---0--0-0--0-0-0--0-0-0--0-0-0----------|
E-----------------------------------------------------------------------|

e-----------------------------------------------------------------------|
B-----------------------------------------------------------------------|
G-----------------------------------------------------------------------|
D----2--2-2--2-2-2--2-2-2--2-2-2---5--5-5--5-5-5--5-5-5--5-5-5----------|
A----2--2-2--2-2-2--2-2-2--2-2-2---5--5-5--5-5-5--5-5-5--5-5-5----------|
E----0--0-0--0-0-0--0-0-0--0-0-0---3--3-3--3-3-3--3-3-3--3-3-3----------|

e---------------------------------------------------------------------------|
B---------------------------------------------------------------------------|
G--------10---10-------10---10----------------10---10--------10---10--------|
D--8---8-10---10-8---8-10---10-8--8-7-5--8--8-10---10--8---8-10---10-8-7-5--|
A--8---8--8----8-8---8--8----8-8--8-7-5--8--8--8----8--8---8--8----8-8-7-5--|
E---------------------------------------------------------------------------|

Verse 2 (Distorted)
(1.15 - 1.23)
No Guitar, just bass playing
(1.24- 1.27)
P.M...................
e---------------------------------------------|
B---------------------------------------------|
G---------------------------------------------|
D-----5-5-5-5---5-5-5--5\---------------------|
A-----5-5-5-5---5-5-5--5\---------------------|
E-----3-3-3-3---3-3-3--3\---------------------|

(1.27- 1.38)
Original verse melody played by another guitar (see guitar 3 below)
e---------8--------8--------------------------------------------|
B-------8---8----8---8----8-8---8h10p8--------------------------|
G---------------------------------------------------------------|
D---------------------------------------------------------------|
A---------------------------------------------------------------|
E---------------------------------------------------------------|
(x2)

e---------7--------7--------------------------------------------|
B-------8---8----8---8----8-8---8h10p8--------------------------|
G---------------------------------------------------------------|
D---------------------------------------5~--------------5-------|
A---------------------------------------5~--------------5-------|
E---------------------------------------3~--------------3-------|

Chorus 2 (Distorted)
(1.38 - 2.13)
e---------------------------------------------------------------------|
B----------------------------------1--1-1--1-1-1--1-1-1--1-1-1--------|
G----5--5-5--5-5-5--5-5-5--5-5-5---2--2-2--2-2-2--2-2-2--2-2-2--------|
D----5--5-5--5-5-5--5-5-5--5-5-5---2--2-2--2-2-2--2-2-2--2-2-2--------|
A----3--3-3--3-3-3--3-3-3--3-3-3---0--0-0--0-0-0--0-0-0--0-0-0--------|
E---------------------------------------------------------------------|

e---------------------------------------------------------------------|
B---------------------------------------------------------------------|
G---------------------------------------------------------------------|
D----2--2-2--2-2-2--2-2-2--2-2-2---5--5-5--5-5-5--5-5-5--5-5-5--------|
A----2--2-2--2-2-2--2-2-2--2-2-2---5--5-5--5-5-5--5-5-5--5-5-5--------|
E----0--0-0--0-0-0--0-0-0--0-0-0---3--3-3--3-3-3--3-3-3--3-3-3--------|

e---------------------------------------------------------------------|
B----------------------------------1--1-1--1-1-1--1-1-1--1-1-1--------|
G----5--5-5--5-5-5--5-5-5--5-5-5---2--2-2--2-2-2--2-2-2--2-2-2--------|
D----5--5-5--5-5-5--5-5-5--5-5-5---2--2-2--2-2-2--2-2-2--2-2-2--------|
A----3--3-3--3-3-3--3-3-3--3-3-3---0--0-0--0-0-0--0-0-0--0-0-0--------|
E---------------------------------------------------------------------|

e---------------------------------------------------------------------|
B---------------------------------------------------------------------|
G---------------------------------------------------------------------|
D----2--2-2--2-2-2--2-2-2--2-2-2---5--5-5--5-5-5--5-5-5--5-5-5--------|
A----2--2-2--2-2-2--2-2-2--2-2-2---5--5-5--5-5-5--5-5-5--5-5-5--------|
E----0--0-0--0-0-0--0-0-0--0-0-0---3--3-3--3-3-3--3-3-3--3-3-3--------|

e---------------------------------------------------------------------------|
B---------------------------------------------------------------------------|
G--------10---10-------10---10----------------10---10--------10---10--------|
D--8---8-10---10-8---8-10---10-8--8-7-5--8--8-10---10--8---8-10---10-8-7-5--|
A--8---8--8----8-8---8--8----8-8--8-7-5--8--8--8----8--8---8--8----8-8-7-5--|
E---------------------------------------------------------------------------|

e---------------------------------------------------------------------------|
B---------------------------------------------------------------------------|
G-------10---10-------10---10----------------10---10--------10---10-------5-|
D-8---8-10---10-8---8-10---10-8--8-7-5--8--8-10---10--8---8-10---10-8-7-5-5-|
A-8---8--8----8-8---8--8----8-8--8-7-5--8--8--8----8--8---8--8----8-8-7-5-3-|
E---------------------------------------------------------------------------|

Verse 3 (Clean)
(2.13 – 2.36)
e---------------0-1-0-------------0-1-0--------------0-1-0-------------|
B-----1------1----------1-------1----------0-------1-------3-----------|
G-----0-----------------2------------------0---------------0-----------|
D-----2-----------------2------------------2---------------5-----------|
A-----3-----------------0------------------2---------------5-----------|
E------------------------------------------0---------------------------|

Another guitar melody can be heard playing over the top of this (see guitar 3 below)
e---------------0-1-0-------------0-1-0--------------0-1-0-------------|
B-----1------1----------1-------1----------0-------1-------------------|
G-----0-----------------2------------------0---------------5~-----5----|
D-----2-----------------2------------------2---------------5~-----5----|
A-----3-----------------0------------------2---------------3~-----3----|
E------------------------------------------0---------------------------|

Chorus 3 (Distorted)
(2.36 - 3.10)
e-----------------------------------------------------------------------|
B----------------------------------1--1-1--1-1-1--1-1-1--1-1-1----------|
G----5--5-5--5-5-5--5-5-5--5-5-5---2--2-2--2-2-2--2-2-2--2-2-2----------|
D----5--5-5--5-5-5--5-5-5--5-5-5---2--2-2--2-2-2--2-2-2--2-2-2----------|
A----3--3-3--3-3-3--3-3-3--3-3-3---0--0-0--0-0-0--0-0-0--0-0-0----------|
E-----------------------------------------------------------------------|

e-----------------------------------------------------------------------|
B-----------------------------------------------------------------------|
G-----------------------------------------------------------------------|
D----2--2-2--2-2-2--2-2-2--2-2-2---5--5-5--5-5-5--5-5-5--5-5-5----------|
A----2--2-2--2-2-2--2-2-2--2-2-2---5--5-5--5-5-5--5-5-5--5-5-5----------|
E----0--0-0--0-0-0--0-0-0--0-0-0---3--3-3--3-3-3--3-3-3--3-3-3----------|

e-----------------------------------------------------------------------|
B----------------------------------1--1-1--1-1-1--1-1-1--1-1-1----------|
G----5--5-5--5-5-5--5-5-5--5-5-5---2--2-2--2-2-2--2-2-2--2-2-2----------|
D----5--5-5--5-5-5--5-5-5--5-5-5---2--2-2--2-2-2--2-2-2--2-2-2----------|
A----3--3-3--3-3-3--3-3-3--3-3-3---0--0-0--0-0-0--0-0-0--0-0-0----------|
E-----------------------------------------------------------------------|

e-----------------------------------------------------------------------|
B-----------------------------------------------------------------------|
G-----------------------------------------------------------------------|
D----2--2-2--2-2-2--2-2-2--2-2-2---5--5-5--5-5-5--5-5-5--5-5-5----------|
A----2--2-2--2-2-2--2-2-2--2-2-2---5--5-5--5-5-5--5-5-5--5-5-5----------|
E----0--0-0--0-0-0--0-0-0--0-0-0---3--3-3--3-3-3--3-3-3--3-3-3----------|

e---------------------------------------------------------------------------|
B---------------------------------------------------------------------------|
G--------10---10-------10---10----------------10---10--------10---10--------|
D--8---8-10---10-8---8-10---10-8--8-7-5--8--8-10---10--8---8-10---10-8-7-5--|
A--8---8--8----8-8---8--8----8-8--8-7-5--8--8--8----8--8---8--8----8-8-7-5--|
E---------------------------------------------------------------------------|









Guitar 2 (Rhythm)
Verse 1 (Clean/Acoustic)
(0.00 – 0.23)
e----0--------------0--------------0--------------3------3---3-3---3-3----|
B----1--------------1--------------0--------------0------0---0-0---0-0----|
G----0--------------2--------------0--------------0------0---0-0---0-0----|
D----2--------------2--------------2--------------0------0---0-0---0-0----|
A----3--------------0--------------2--------------2------2---2-2---2-2----|
E----------------------------------0--------------3------3---3-3---3-3----|

e----0---0---0-0---0-0----0---0---0-0---0-0----0---0---0-0---0-0-----3----|
B----1---1---1-1---1-1----1---1---1-1---1-1----0---0---0-0---0-0-----0~---|
G----0---0---0-0---0-0----2---2---2-2---2-2----0---0---0-0---0-0-----0~---|
D----2---2---2-2---2-2----2---2---2-2---2-2----2---2---2-2---2-2-----0~---|
A----3---3---3-3---3-3----0---0---0-0---0-0----2---2---2-2---2-2-----2~---|
E----------------------------------------------0---0---0-0---0-0-----3~---|

Verse 1 (Distorted)
(0.23 - 0.45)
P.M...................................................................
e-------------------------------------------------------------------------|
B------------------------------------1--1-1--1--1-1-1--1-1-1--1-1-1-------|
G----5--5-5--5--5-5-5--5-5-5--5-5-5--2--2-2--2--2-2-2--2-2-2--2-2-2-------|
D----5--5-5--5--5-5-5--5-5-5--5-5-5--2--2-2--2--2-2-2--2-2-2--2-2-2-------|
A----3--3-3--3--3-3-3--3-3-3--3-3-3--0--0-0--0--0-0-0--0-0-0--0-0-0-------|
E-------------------------------------------------------------------------|

P.M.................................................................
e-------------------------------------------------------------------------|
B-------------------------------------------------------------------------|
G-------------------------------------------------------------------------|
D----2--2-2--2--2-2-2--2-2-2--2-2-2--5--5-5--5--5-5-5--5--5-5-5--5--------|
A----2--2-2--2--2-2-2--2-2-2--2-2-2--5--5-5--5--5-5-5--5--5-5-5--5--------|
E----0--0-0--0--0-0-0--0-0-0--0-0-0--3--3-3--3--3-3-3--3--3-3-3--3--------|

P.M...................................................................
e-------------------------------------------------------------------------|
B------------------------------------1--1-1--1--1-1-1--1-1-1--1-1-1-------|
G----5--5-5--5--5-5-5--5-5-5--5-5-5--2--2-2--2--2-2-2--2-2-2--2-2-2-------|
D----5--5-5--5--5-5-5--5-5-5--5-5-5--2--2-2--2--2-2-2--2-2-2--2-2-2-------|
A----3--3-3--3--3-3-3--3-3-3--3-3-3--0--0-0--0--0-0-0--0-0-0--0-0-0-------|
E-------------------------------------------------------------------------|

P.M................................
e-------------------------------------------------------------------------|
B-------------------------------------------------------------------------|
G-------------------------------------------------------------------------|
D----2--2-2--2--2-2-2--2-2-2--2-2-2--5~-------------------------5---------|
A----2--2-2--2--2-2-2--2-2-2--2-2-2--5~-------------------------5---------|
E----0--0-0--0--0-0-0--0-0-0--0-0-0--3~-------------------------3---------|

Chorus 1 (Distorted)
(0.45 - 1.15)
e-----------------------------------------------------------------------|
B----------------------------------1--1-1--1-1-1--1-1-1--1-1-1----------|
G----5--5-5--5-5-5--5-5-5--5-5-5---2--2-2--2-2-2--2-2-2--2-2-2----------|
D----5--5-5--5-5-5--5-5-5--5-5-5---2--2-2--2-2-2--2-2-2--2-2-2----------|
A----3--3-3--3-3-3--3-3-3--3-3-3---0--0-0--0-0-0--0-0-0--0-0-0----------|
E-----------------------------------------------------------------------|

e-----------------------------------------------------------------------|
B-----------------------------------------------------------------------|
G-----------------------------------------------------------------------|
D----2--2-2--2-2-2--2-2-2--2-2-2---5--5-5--5-5-5--5-5-5--5-5-5----------|
A----2--2-2--2-2-2--2-2-2--2-2-2---5--5-5--5-5-5--5-5-5--5-5-5----------|
E----0--0-0--0-0-0--0-0-0--0-0-0---3--3-3--3-3-3--3-3-3--3-3-3----------|

e-----------------------------------------------------------------------|
B----------------------------------1--1-1--1-1-1--1-1-1--1-1-1----------|
G----5--5-5--5-5-5--5-5-5--5-5-5---2--2-2--2-2-2--2-2-2--2-2-2----------|
D----5--5-5--5-5-5--5-5-5--5-5-5---2--2-2--2-2-2--2-2-2--2-2-2----------|
A----3--3-3--3-3-3--3-3-3--3-3-3---0--0-0--0-0-0--0-0-0--0-0-0----------|
E-----------------------------------------------------------------------|

e-----------------------------------------------------------------------|
B-----------------------------------------------------------------------|
G-----------------------------------------------------------------------|
D----2--2-2--2-2-2--2-2-2--2-2-2---5--5-5--5-5-5--5-5-5--5-5-5----------|
A----2--2-2--2-2-2--2-2-2--2-2-2---5--5-5--5-5-5--5-5-5--5-5-5----------|
E----0--0-0--0-0-0--0-0-0--0-0-0---3--3-3--3-3-3--3-3-3--3-3-3----------|

e---------------------------------------------------------------------------|
B---------------------------------------------------------------------------|
G--------10---10-------10---10----------------10---10--------10---10--------|
D--8---8-10---10-8---8-10---10-8--8-7-5--8--8-10---10--8---8-10---10-8-7-5--|
A--8---8--8----8-8---8--8----8-8--8-7-5--8--8--8----8--8---8--8----8-8-7-5--|
E---------------------------------------------------------------------------|

Verse 2 (Distorted)
(1.15 - 1.23)
No Guitar, just bass playing
(1.24- 1.27)
P.M...................
e---------------------------------------------|
B---------------------------------------------|
G---------------------------------------------|
D-----5-5-5-5---5-5-5--5\---------------------|
A-----5-5-5-5---5-5-5--5\---------------------|
E-----3-3-3-3---3-3-3--3\---------------------|

(1.27- 1.38)
P.M.............................................................
e-------------------------------------------------------------------------|
B----------------------------------1--1-1--1-1-1--1-1-1--1-1-1------------|
G----5--5-5--5-5-5--5-5-5--5-5-5---2--2-2--2-2-2--2-2-2--2-2-2------------|
D----5--5-5--5-5-5--5-5-5--5-5-5---2--2-2--2-2-2--2-2-2--2-2-2------------|
A----3--3-3--3-3-3--3-3-3--3-3-3---0--0-0--0-0-0--0-0-0--0-0-0------------|
E-------------------------------------------------------------------------|

P.M................................
e-------------------------------------------------------------------------|
B-------------------------------------------------------------------------|
G-------------------------------------------------------------------------|
D----2--2-2--2--2-2-2--2-2-2--2-2-2--5~-------------------------5---------|
A----2--2-2--2--2-2-2--2-2-2--2-2-2--5~-------------------------5---------|
E----0--0-0--0--0-0-0--0-0-0--0-0-0--3~-------------------------3---------|

Chorus 2 (Distorted)
(1.38 - 2.13)
e---------------------------------------------------------------------|
B----------------------------------1--1-1--1-1-1--1-1-1--1-1-1--------|
G----5--5-5--5-5-5--5-5-5--5-5-5---2--2-2--2-2-2--2-2-2--2-2-2--------|
D----5--5-5--5-5-5--5-5-5--5-5-5---2--2-2--2-2-2--2-2-2--2-2-2--------|
A----3--3-3--3-3-3--3-3-3--3-3-3---0--0-0--0-0-0--0-0-0--0-0-0--------|
E---------------------------------------------------------------------|

e---------------------------------------------------------------------|
B---------------------------------------------------------------------|
G---------------------------------------------------------------------|
D----2--2-2--2-2-2--2-2-2--2-2-2---5--5-5--5-5-5--5-5-5--5-5-5--------|
A----2--2-2--2-2-2--2-2-2--2-2-2---5--5-5--5-5-5--5-5-5--5-5-5--------|
E----0--0-0--0-0-0--0-0-0--0-0-0---3--3-3--3-3-3--3-3-3--3-3-3--------|

e---------------------------------------------------------------------|
B----------------------------------1--1-1--1-1-1--1-1-1--1-1-1--------|
G----5--5-5--5-5-5--5-5-5--5-5-5---2--2-2--2-2-2--2-2-2--2-2-2--------|
D----5--5-5--5-5-5--5-5-5--5-5-5---2--2-2--2-2-2--2-2-2--2-2-2--------|
A----3--3-3--3-3-3--3-3-3--3-3-3---0--0-0--0-0-0--0-0-0--0-0-0--------|
E---------------------------------------------------------------------|

e---------------------------------------------------------------------|
B---------------------------------------------------------------------|
G---------------------------------------------------------------------|
D----2--2-2--2-2-2--2-2-2--2-2-2---5--5-5--5-5-5--5-5-5--5-5-5--------|
A----2--2-2--2-2-2--2-2-2--2-2-2---5--5-5--5-5-5--5-5-5--5-5-5--------|
E----0--0-0--0-0-0--0-0-0--0-0-0---3--3-3--3-3-3--3-3-3--3-3-3--------|

e---------------------------------------------------------------------------|
B---------------------------------------------------------------------------|
G--------10---10-------10---10----------------10---10--------10---10--------|
D--8---8-10---10-8---8-10---10-8--8-7-5--8--8-10---10--8---8-10---10-8-7-5--|
A--8---8--8----8-8---8--8----8-8--8-7-5--8--8--8----8--8---8--8----8-8-7-5--|
E---------------------------------------------------------------------------|

e---------------------------------------------------------------------------|
B---------------------------------------------------------------------------|
G-------10---10-------10---10----------------10---10--------10---10-------5-|
D-8---8-10---10-8---8-10---10-8--8-7-5--8--8-10---10--8---8-10---10-8-7-5-5-|
A-8---8--8----8-8---8--8----8-8--8-7-5--8--8--8----8--8---8--8----8-8-7-5-3-|
E---------------------------------------------------------------------------|

Verse 3 (Clean)
(2.13 – 2.36)
e----0--------------0--------------0--------------3------3---3-3---3-3----|
B----1--------------1--------------0--------------0------0---0-0---0-0----|
G----0--------------2--------------0--------------0------0---0-0---0-0----|
D----2--------------2--------------2--------------0------0---0-0---0-0----|
A----3--------------0--------------2--------------2------2---2-2---2-2----|
E----------------------------------0--------------3------3---3-3---3-3----|

e----0---0---0-0---0-0----0---0---0-0---0-0----0---0---0-0---0-0----------|
B----1---1---1-1---1-1----1---1---1-1---1-1----0---0---0-0---0-0----------|
G----0---0---0-0---0-0----2---2---2-2---2-2----0---0---0-0---0-0---5~--5--|
D----2---2---2-2---2-2----2---2---2-2---2-2----2---2---2-2---2-2---5~--5--|
A----3---3---3-3---3-3----0---0---0-0---0-0----2---2---2-2---2-2---3~--3--|
E----------------------------------------------0---0---0-0---0-0----------|

Chorus 3 (Distorted)
(2.36 - 3.10)
e-----------------------------------------------------------------------|
B----------------------------------1--1-1--1-1-1--1-1-1--1-1-1----------|
G----5--5-5--5-5-5--5-5-5--5-5-5---2--2-2--2-2-2--2-2-2--2-2-2----------|
D----5--5-5--5-5-5--5-5-5--5-5-5---2--2-2--2-2-2--2-2-2--2-2-2----------|
A----3--3-3--3-3-3--3-3-3--3-3-3---0--0-0--0-0-0--0-0-0--0-0-0----------|
E-----------------------------------------------------------------------|

e-----------------------------------------------------------------------|
B-----------------------------------------------------------------------|
G-----------------------------------------------------------------------|
D----2--2-2--2-2-2--2-2-2--2-2-2---5--5-5--5-5-5--5-5-5--5-5-5----------|
A----2--2-2--2-2-2--2-2-2--2-2-2---5--5-5--5-5-5--5-5-5--5-5-5----------|
E----0--0-0--0-0-0--0-0-0--0-0-0---3--3-3--3-3-3--3-3-3--3-3-3----------|

e-----------------------------------------------------------------------|
B----------------------------------1--1-1--1-1-1--1-1-1--1-1-1----------|
G----5--5-5--5-5-5--5-5-5--5-5-5---2--2-2--2-2-2--2-2-2--2-2-2----------|
D----5--5-5--5-5-5--5-5-5--5-5-5---2--2-2--2-2-2--2-2-2--2-2-2----------|
A----3--3-3--3-3-3--3-3-3--3-3-3---0--0-0--0-0-0--0-0-0--0-0-0----------|
E-----------------------------------------------------------------------|

e-----------------------------------------------------------------------|
B-----------------------------------------------------------------------|
G-----------------------------------------------------------------------|
D----2--2-2--2-2-2--2-2-2--2-2-2---5--5-5--5-5-5--5-5-5--5-5-5----------|
A----2--2-2--2-2-2--2-2-2--2-2-2---5--5-5--5-5-5--5-5-5--5-5-5----------|
E----0--0-0--0-0-0--0-0-0--0-0-0---3--3-3--3-3-3--3-3-3--3-3-3----------|

e---------------------------------------------------------------------------|
B---------------------------------------------------------------------------|
G--------10---10-------10---10----------------10---10--------10---10--------|
D--8---8-10---10-8---8-10---10-8--8-7-5--8--8-10---10--8---8-10---10-8-7-5--|
A--8---8--8----8-8---8--8----8-8--8-7-5--8--8--8----8--8---8--8----8-8-7-5--|
E---------------------------------------------------------------------------|









Guitar 3 (Extras)
Verse 1 (Clean)
(0.00 – 0.45)
No guitar

Chorus 1 (Distorted)
(0.45 - 1.15)
No guitar

Verse 2 (Distorted)
(1.15 - 1.27)
No guitar 
(1.27- 1.38)
P.M.....................            .....................
e-----------------------------------------------------------------------|
B------------------------------------1--1-1--1--1-1-1--1----------------|
G----5--5-5--5--5-5-5--5-------------2--2-2--2--2-2-2--2----------------|
D----5--5-5--5--5-5-5--5---2--2h3p2--2--2-2--2--2-2-2--2--2--2h3p2------|
A----3--3-3--3--3-3-3--3-3-----------0--0-0--0--0-0-0--0----------------|
E-----------------------------------------------------------------------|

P.M.....................                 
e-----------------------------------------------------------------------|
B-----------------------------------------------------------------------|
G-----------------------------------------------------------------------|
D----2--2-2--2--2-2-2--2---2--2h3p2--5~-----------------------5---------|
A----2--2-2--2--2-2-2--2-3-----------5~-----------------------5---------|
E----0--0-0--0--0-0-0--0-------------3~-----------------------3---------|

Chorus 2 (Distorted)
(1.38 - 2.06)
No Guitar
(2.06 - 2.13)
e-0-10-0-0-5-0-0-8-0-0-5-0-0-3-0-1---0-10-0-0-5-0-0-8-0-0-5-0-0-3-0-1-0-----|
B---------------------------------3------------------------------------3/5~-|
G---------------------------------------------------------------------------|
D---------------------------------------------------------------------------|
A---------------------------------------------------------------------------|
E---------------------------------------------------------------------------|

Verse 3 (Clean)
(2.13 – 2.25)
No guitar
(2.25 - 2.36)
e-------12--15--12--17--12--15--12------12--15--12--17--12--15--12----------|
B---13------------------------------13--------------------------------------|
G---------------------------------------------------------------------------|
D---------------------------------------------------------------------------|
A---------------------------------------------------------------------------|
E---------------------------------------------------------------------------|

e--------12--15--12--17--12--15--12--10-------------------------------------|
B----12---------------------------------------------------------------------|
G---------------------------------------------------------------------------|
D---------------------------------------------------------------------------|
A---------------------------------------------------------------------------|
E---------------------------------------------------------------------------|

Chorus 3 (Distorted)
(2.36 - 3.03)
No Guitar
(3.03 - 3.10)
e-------0-10-0-0-5-0-0-8-0-0-5-0-0-3-0-1-0----------|
B-----------------------------------------3---------|
G---------------------------------------------------|
D---------------------------------------------------|
A---------------------------------------------------|
E---------------------------------------------------|

Thanks for checking out the tab!
As I said at the top if you have any corrections or comments then feel free to let me know :)
Enjoy!
comments
print report bad tab
3 comments total.
0 reply
riseagainst&pr wrote on March 30 2013, 05:26 pm

awesome tab dude. thank you

0 reply
kya14 wrote on July 30 2014, 03:44 am

didn't like this contribution

0 reply
anthony1001 wrote on July 31 2014, 04:34 pm

fair enough.

I want to post or [tab]
guest
You may want to rate the tab now too:
select rating
Please do not post tabs as comments. Select "correction" instead!