Oops, an error
Loading. Please wait.

Hit The Lights Tab

ver3
ver3

Intro

Whole song

Interactive

More versions @911Tabs.com
1,992 views 1 this week
2 commentsread comments
1 2 3 4 5
excellent!
x 1
Autoscroll
+/-
esc
set tempo
stop
Contributor
Difficulty
intermediate
NEW! There's an official Ultimate Guitar app which is ideal
for learning songs when you're away from computer. Get the app
WARNING: You are trying to view
                                    content from Ultimate-Guitar.com
                                    in an unauthorized application,
                                    which is prohibited.

                                    Please use an official Ultimate
                                    Guitar Tabs application for iPhone,
                                    iPad or Android to access legitimate
                                    chords, guitar, bass, and drum tabs
                                    from Ultimate-Guitar.com database.

                                    Type "ultimate guitar tabs" in Apple
                                    App Store's or Android Market's
                                    search to find the application.
Title: Hit the Lights
Artist: All Time Low
Album: The Three Words To Remember In Dealing With The End
Tabbed by: Phloprox
Tuning: E A D G B E

I couldn't find a complete and/or correct Hit the Lights tab on UG, so, here it is [I 
it by ear]. :D

It's my first tab, so be as critical as possible. Comment if you have any corrections 
is a part in the chorus that I think I hear, but it might just be in my head, and 
therefore will not put up until I can assured). And, sorry it's a long tab :P

Note: I did NOT include palm muting, sliding, or strumming specifities. You might not 
a good enough ear to learn songs by yourself by ear, but you're not deaf and can sure as
hell hear when to slide, strum, palm mute.

Edit: It's not just in my head, there is a part in the chorus that I hear so I'm adding
it in. I also fixed the chorus up a little bit.

                    Intro
|-------------------------------------------------------|
|-------------------------------------------------------|
|------------------------8h9p8--------------------------|
|----9---9-------9---9----------------------------------|
|7-7---------7-7----------------------------------------|
|-------------------------------------------------------|
|                                                       | 2x
|-------------------------------------------------------|
|-------------------------------------------------------|
|-------------------------------------------------------|
|-------------------------------------------------------|
|-------------------------------------------------------|
|-------------------------------------------------------|

|-------------------------------------------------------|
|-------------------------------------------------------|
|------------------------8h9p8--------------------------|
|----9---9-------9---9----------------------------------|
|7-7---------7-7----------------------------------------|
|-------------------------------------------------------|
|                                                       |
|-------------------------------------------------------|
|-------------------------------------------------------|
|-------------------------------------------------------|
|7------------------------------------------------------|
|7------------------------------------------------------|
|5------------------------------------------------------|

|-------------------------------------------------------|
|-------------------------------------------------------|
|------------------------8h9p8--------------------------|
|----9---9-------9---9----------------------------------|
|7-7---------7-7----------------------------------------|
|-------------------------------------------------------|
|                                                       |
|-------------------------------------------------------|
|-------------------------------------------------------|
|-------------------------------------------------------|
|-------------------------------------------------------|
|-------------------------------------------------------|
|-------------------------------------------------------|

|-------------------------------------------------------|
|-------------------------------------------------------|
|------------------------8h9p8--------------------------|
|----9---9-------9---9----------------------------------|
|7-7---------7-7----------------------------------------|
|-------------------------------------------------------|
|                                                       |
|-------------------------------------------------------|
|-------------------------------------------------------|
|-------------------------------------------------------|
|2------------------------------------------------------|
|2------------------------------------------------------|
|0------------------------------------------------------|


|-------------------------------------------------------|
|-------------------------------------------------------|
|------------------------8h9p8--------------------------|
|----9---9-------9---9----------------------------------|
|7-7---------7-7----------------------------------------|
|-------------------------------------------------------|
|                                                       |
|-------------------------------------------------------|
|-------------------------------------------------------|
|-------------------------------------------------------|
|-------------------------------------------------------|
|-------------------------------------------------------|
|-------------------------------------------------------|

|-------------------------------------------------------|
|-------------------------------------------------------|
|------------------------8h9p8--------------------------|
|----9---9-------9---9----------------------------------|
|7-7---------7-7----------------------------------------|
|-------------------------------------------------------|
|                                                       |
|-------------------------------------------------------|
|-------------------------------------------------------|
|-------------------------------------------------------|
|7------------------------------------------------------|
|7------------------------------------------------------|
|5------------------------------------------------------|

|-------------------------------------------------------|
|-------------------------------------------------------|
|------------------------8h9p8--------------------------|
|----9---9-------9---9----------------------------------|
|7-7---------7-7----------------------------------------|
|-------------------------------------------------------|
|                                                       |
|-------------------------------------------------------|
|-------------------------------------------------------|
|-------------------------------------------------------|
|-------------------------------------------------------|
|-------------------------------------------------------|
|-------------------------------------------------------|

|-------------------------------------------------------|
|-------------------------------------------------------|
|9-----11-----13-----14---------------------------------|
|x-----x------x------x----------------------------------|
|7-----9------11-----12---------------------------------|
|-------------------------------------------------------|
|                                                       |
|-------------------------------------------------------|
|-------------------------------------------------------|
|9-----8------9------11---------------------------------|
|x-----x------x------x----------------------------------|
|7-----6------7------9----------------------------------|
|-------------------------------------------------------|
        Figure out the strumming yourself :P
|-------------------------------------------------------|
|-------------------------------------------------------|
|-------------------------------------------------------|
|-------------------------------------------------------|
|-------------------------------------------------------|
|-------------------------------------------------------|
|                                                       |
|-------------------------------------------------------|
|-------------------------------------------------------|
|-------------------------------------------------------|
|9------------------------------------------------------|
|9------------------------------------------------------|
|7------------------------------------------------------|

|-------------------------------------------------------|
|-------------------------------------------------------|
|----9-------9-------8-------8h9------------------------|
|9-9-----9-9-----9-9-----9-9----------------------------|
|-------------------------------------------------------|
|-------------------------------------------------------|
|                                                       |
|-------------------------------------------------------|
|-------------------------------------------------------|
|-------------------------------------------------------|
|11-----------------------------------------------------|
|11-----------------------------------------------------|
|9------------------------------------------------------|

|-------------------------------------------------------|
|-------------------------------------------------------|
|----9-------9-------11------11-------------------------|
|9-9-----9-9-----9-9-----9-9----------------------------|
|-------------------------------------------------------|
|-------------------------------------------------------|
|                                                       |
|-------------------------------------------------------|
|-------------------------------------------------------|
|-------------------------------------------------------|
|7------------------------------------------------------|
|7------------------------------------------------------|
|5------------------------------------------------------|

|-------------------------------------------------------|
|-------------------------------------------------------|
|9-----11-----13-----14---------------------------------|
|x-----x------x------x----------------------------------|
|7-----9------11-----12---------------------------------|
|-------------------------------------------------------|
|                                                       |
|-------------------------------------------------------|
|-------------------------------------------------------|
|9-----8------9------11---------------------------------|
|x-----x------x------x----------------------------------|
|7-----6------7------9----------------------------------|
|-------------------------------------------------------|

|-------------------------------------------------------|
|-------------------------------------------------------|
|-------------------------------------------------------|
|-------------------------------------------------------|
|-------------------------------------------------------|
|-------------------------------------------------------|
|                                                       |
|-------------------------------------------------------|
|-------------------------------------------------------|
|-------------------------------------------------------|
|9------------------------------------------------------|
|9------------------------------------------------------|
|7------------------------------------------------------|

|-------------------------------------------------------|
|-------------------------------------------------------|
|----9-------9-------8-------8h9------------------------|
|9-9-----9-9-----9-9-----9-9----------------------------|
|-------------------------------------------------------|
|-------------------------------------------------------|
|                                                       |
|-------------------------------------------------------|
|-------------------------------------------------------|
|-------------------------------------------------------|
|11-----------------------------------------------------|
|11-----------------------------------------------------|
|9------------------------------------------------------|

|-------------------------------------------------------|
|-------------------------------------------------------|
|9------------------------------------------------------|
|-------------------------------------------------------|
|-------------------------------------------------------|
|-------------------------------------------------------|
|                                                       |
|-------------------------------------------------------|
|-------------------------------------------------------|
|-------------------------------------------------------|
|7~-----------------------------------------------------|
|7~-----------------------------------------------------|
|5~-----------------------------------------------------|

                      Verse 1
|-------------------------------------------------------|
|-------------------------------------------------------|
|----9-------8-------9-------9h11-----------------------|
|9-9-----9-9-----9-9-----9-9----------------------------|
|-------------------------------------------------------|
|-------------------------------------------------------|
|. .     . .    . .     . .                             |
|-------------------------------------------------------|
|-------------------------------------------------------|
|-------------------------------------------------------|
|2------------------------------------------------------|
|2------------------------------------------------------|
|0------------------------------------------------------|

|-------------------------------------------------------|
|-------------------------------------------------------|
|----9-------8-------9-------9h11-----------------------|
|9-9-----9-9-----9-9-----9-9----------------------------|
|-------------------------------------------------------|
|-------------------------------------------------------|
|. .     . .    . .     . .                             |
|-------------------------------------------------------|
|-------------------------------------------------------|
|-------------------------------------------------------|
|11-----------------------------------------------------|
|11-----------------------------------------------------|
|9------------------------------------------------------|

|-------------------------------------------------------|
|-------------------------------------------------------|
|----9-------8-------9-------9h11-----------------------|
|9-9-----9-9-----9-9-----9-9----------------------------|
|-------------------------------------------------------|
|-------------------------------------------------------|
|. .     . .    . .     . .                             |
|-------------------------------------------------------|
|-------------------------------------------------------|
|-------------------------------------------------------|
|9------------------------------------------------------|
|9------------------------------------------------------|
|7------------------------------------------------------|

|-------------------------------------------------------|
|-------------------------------------------------------|
|----9-------8-------9-------9h11-----------------------|
|9-9-----9-9-----9-9-----9-9----------------------------|
|-------------------------------------------------------|
|-------------------------------------------------------|
|. .     . .    . .     . .                             |
|-------------------------------------------------------|
|-------------------------------------------------------|
|-------------------------------------------------------|
|7------------------------------------------------------|
|7------------------------------------------------------|
|5------------------------------------------------------|

|-------------------------------------------------------|
|-------------------------------------------------------|
|----9-------8-------9-------9h11-----------------------|
|9-9-----9-9-----9-9-----9-9----------------------------|
|-------------------------------------------------------|
|-------------------------------------------------------|
|                                                       |
|-------------------------------------------------------|
|----9-------7-------9-------9h10-----------------------|
|-------------------------------------------------------|
|9-9-----9-9-----9-9-----9-9----------------------------|
|-------------------------------------------------------|
|-------------------------------------------------------|
|                                                       |
|-------------------------------------------------------|
|-------------------------------------------------------|
|-------------------------------------------------------|
|2------------------------------------------------------|
|2------------------------------------------------------|
|0------------------------------------------------------|

|-------------------------------------------------------|
|-------------------------------------------------------|
|----9-------8-------9-------9h11-----------------------|
|9-9-----9-9-----9-9-----9-9----------------------------|
|-------------------------------------------------------|
|-------------------------------------------------------|
|                                                       |
|-------------------------------------------------------|
|----9-------7-------9-------9h10-----------------------|
|-------------------------------------------------------|
|9-9-----9-9-----9-9-----9-9----------------------------|
|-------------------------------------------------------|
|-------------------------------------------------------|
|                                                       |
|-------------------------------------------------------|
|-------------------------------------------------------|
|-------------------------------------------------------|
|11-----------------------------------------------------|
|11-----------------------------------------------------|
|9------------------------------------------------------|

|-------------------------------------------------------|
|-------------------------------------------------------|
|----9-------8-------9-------9h11-----------------------|
|9-9-----9-9-----9-9-----9-9----------------------------|
|-------------------------------------------------------|
|-------------------------------------------------------|
|                                                       |
|-------------------------------------------------------|
|----9-------7-------9-------9h10-----------------------|
|-------------------------------------------------------|
|9-9-----9-9-----9-9-----9-9----------------------------|
|-------------------------------------------------------|
|-------------------------------------------------------|
|                                                       |
|-------------------------------------------------------|
|-------------------------------------------------------|
|-------------------------------------------------------|
|9------------------------------------------------------|
|9------------------------------------------------------|
|7------------------------------------------------------|

|-------------------------------------------------------|
|-------------------------------------------------------|
|----9-------8-------9-------9h11-----------------------|
|9-9-----9-9-----9-9-----9-9----------------------------|
|-------------------------------------------------------|
|-------------------------------------------------------|
|                                                       |
|-------------------------------------------------------|
|----9-------7-------9-------9h10-----------------------|
|-------------------------------------------------------|
|9-9-----9-9-----9-9-----9-9----------------------------|
|-------------------------------------------------------|
|-------------------------------------------------------|
|                                                       |
|-------------------------------------------------------|
|-------------------------------------------------------|
|-------------------------------------------------------|
|7------------------------------------------------------|
|7------------------------------------------------------|
|5------------------------------------------------------|
                     Pre-chorus
|-------------------------------------------------------|
|-------------------------------------------------------|
|--------------------8-------9--------------------------|
|--------9----------------------------------------------|
|7-7---7-----7-7---7-----7-7----------------------------|
|-------------------------------------------------------|
|                                                       |
|-------------------------------------------------------|
|-------------------------------------------------------|
|-------------------------------------------------------|
|2------------------------------------------------------|
|2------------------------------------------------------|
|0------------------------------------------------------|

|-------------------------------------------------------|
|-------------------------------------------------------|
|--------9-----------8-------9--------------------------|
|-------------------------------------------------------|
|7-7---7-----7-7---7-----7-7----------------------------|
|-------------------------------------------------------|
|                                                       |
|-------------------------------------------------------|
|-------------------------------------------------------|
|-------------------------------------------------------|
|-------------------------------------------------------|
|-------------------------------------------------------|
|-------------------------------------------------------|

|-------------------------------------------------------|
|-------------------------------------------------------|
|--------9-----------8-------9--------------------------|
|-------------------------------------------------------|
|7-7---7-----7-7---7-----7-7----------------------------|
|-------------------------------------------------------|
|                                                       |
|-------------------------------------------------------|
|-------------------------------------------------------|
|-------------------------------------------------------|
|7------------------------------------------------------|
|7------------------------------------------------------|
|5------------------------------------------------------|

|-------------------------------------------------------|
|-------------------------------------------------------|
|--------9-----------8-------9--------------------------|
|-------------------------------------------------------|
|7-7---7-----7-7---7-----7-7----------------------------|
|-------------------------------------------------------|
|                                                       |
|-------------------------------------------------------|
|-------------------------------------------------------|
|-------------------------------------------------------|
|9------------------------------------------------------|
|9------------------------------------------------------|
|7------------------------------------------------------|

|-------------------------------------------------------|
|-------------------------------------------------------|
|--------9-----------8-------9--------------------------|
|-------------------------------------------------------|
|7-7---7-----7-7---7-----7-7----------------------------|
|-------------------------------------------------------|
|                                                       |
|-------------------------------------------------------|
|-------------------------------------------------------|
|-------------------------------------------------------|
|11-----------------------------------------------------|
|11-----------------------------------------------------|
|9------------------------------------------------------|

|-------------------------------------------------------|
|-------------------------------------------------------|
|--------9-----------8-------9--------------------------|
|-------------------------------------------------------|
|7-7---7-----7-7---7-----7-7----------------------------|
|-------------------------------------------------------|
|                                                       |
|-------------------------------------------------------|
|-------------------------------------------------------|
|-------------------------------------------------------|
|9------------------------------------------------------|
|9------------------------------------------------------|
|7------------------------------------------------------|

|-------------------------------------------------------|
|-------------------------------------------------------|
|--------9-----------8-------9--------------------------|
|-------------------------------------------------------|
|7-7---7-----7-7---7-----7-7----------------------------|
|-------------------------------------------------------|
|                                                       |
|-------------------------------------------------------|
|-------------------------------------------------------|
|-------------------------------------------------------|
|7------------------------------------------------------|
|7------------------------------------------------------|
|5------------------------------------------------------|

|-------------------------------------------------------|
|-------------------------------------------------------|
|--------9-----------8-------9--------------------------|
|-------------------------------------------------------|
|7-7---7-----7-7---7-----7-7----------------------------|
|-------------------------------------------------------|
|                                                       |
|-------------------------------------------------------|
|-------------------------------------------------------|
|-------------------------------------------------------|
|9------------------------------------------------------|
|9------------------------------------------------------|
|7------------------------------------------------------|
                      "Innocent"
|-------------------------------------------------------|
|-------------------------------------------------------|
|-------------------------------------------------------|
|-------------------------------------------------------|
|-------------------------------------------------------|
|-------------------------------------------------------|
|                                                       |
|-------------------------------------------------------|
|-------------------------------------------------------|
|-------------------------------------------------------|
|11-----------------------------------------------------|
|11-----------------------------------------------------|
|9------------------------------------------------------|
                    Chorus
|-------------------------------------------------------|
|-------------------------------------------------------|
|----2---4-6---2-4--------------------------------------|
|2---x---x-x---x-x--------------------------------------|
|2---0---2-4---0-2--------------------------------------|
|0------------------------------------------------------|
|                                                       | 
|-------------------------------------------------------|
|-------------------------------------------------------|
|9---11-13-11--9-11-------------------------------------|
|x---x---x-x---x-x--------------------------------------| 2x
|7---9--11-9---7-9--------------------------------------|
|-------------------------------------------------------|
|                                                       |
|-------------------------------------------------------|
|-------------------------------------------------------|
|-------------------------------------------------------|
|2---7---9-11--7-9--------------------------------------|
|2---7---9-11--7-9--------------------------------------|
|0---5---7-9---5-7--------------------------------------|

                   Bridge 1
|-------------------------------------------------------|
|-------------------------------------------------------|
|9-----11-----13-----14---------------------------------|
|x-----x------x------x----------------------------------|
|7-----9------11-----12---------------------------------|
|-------------------------------------------------------|
|                                                       |
|-------------------------------------------------------|
|-------------------------------------------------------|
|9-----8------9------11---------------------------------|
|x-----x------x------x----------------------------------|
|7-----6------7------9----------------------------------|
|-------------------------------------------------------|

|-------------------------------------------------------|
|-------------------------------------------------------|
|-------------------------------------------------------|
|-------------------------------------------------------|
|-------------------------------------------------------|
|-------------------------------------------------------|
|                                                       |
|-------------------------------------------------------|
|-------------------------------------------------------|
|-------------------------------------------------------|
|9------------------------------------------------------|
|9------------------------------------------------------|
|7------------------------------------------------------|

|-------------------------------------------------------|
|-------------------------------------------------------|
|----9-------9-------8-------8h9------------------------|
|9-9-----9-9-----9-9-----9-9----------------------------|
|-------------------------------------------------------|
|-------------------------------------------------------|
|                                                       |
|-------------------------------------------------------|
|-------------------------------------------------------|
|-------------------------------------------------------|
|11-----------------------------------------------------|
|11-----------------------------------------------------|
|9------------------------------------------------------|

|-------------------------------------------------------|
|-------------------------------------------------------|
|----9-------9-------11------11-------------------------|
|9-9-----9-9-----9-9-----9-9----------------------------|
|-------------------------------------------------------|
|-------------------------------------------------------|
|                                                       |
|-------------------------------------------------------|
|-------------------------------------------------------|
|-------------------------------------------------------|
|7------------------------------------------------------|
|7------------------------------------------------------|
|5------------------------------------------------------|

|-------------------------------------------------------|
|-------------------------------------------------------|
|9-----11-----13-----14---------------------------------|
|x-----x------x------x----------------------------------|
|7-----9------11-----12---------------------------------|
|-------------------------------------------------------|
|                                                       |
|-------------------------------------------------------|
|-------------------------------------------------------|
|9-----8------9------11---------------------------------|
|x-----x------x------x----------------------------------|
|7-----6------7------9----------------------------------|
|-------------------------------------------------------|

|-------------------------------------------------------|
|-------------------------------------------------------|
|-------------------------------------------------------|
|-------------------------------------------------------|
|-------------------------------------------------------|
|-------------------------------------------------------|
|                                                       |
|-------------------------------------------------------|
|-------------------------------------------------------|
|-------------------------------------------------------|
|9------------------------------------------------------|
|9------------------------------------------------------|
|7------------------------------------------------------|

|-------------------------------------------------------|
|-------------------------------------------------------|
|----9-------9-------8-------8h9------------------------|
|9-9-----9-9-----9-9-----9-9----------------------------|
|-------------------------------------------------------|
|-------------------------------------------------------|
|                                                       |
|-------------------------------------------------------|
|-------------------------------------------------------|
|-------------------------------------------------------|
|11-----------------------------------------------------|
|11-----------------------------------------------------|
|9------------------------------------------------------|

|-------------------------------------------------------|
|-------------------------------------------------------|
|9------------------------------------------------------|
|-------------------------------------------------------|
|-------------------------------------------------------|
|-------------------------------------------------------|
|                                                       |
|-------------------------------------------------------|
|-------------------------------------------------------|
|-------------------------------------------------------|
|7~-----------------------------------------------------|
|7~-----------------------------------------------------|
|5~-----------------------------------------------------|

                      Verse 2
|-------------------------------------------------------|
|-------------------------------------------------------|
|----9-------8-------9-------9h11-----------------------|
|9-9-----9-9-----9-9-----9-9----------------------------|
|-------------------------------------------------------|
|-------------------------------------------------------|
|. .     . .    . .     . .                             |
|-------------------------------------------------------|
|-------------------------------------------------------|
|-------------------------------------------------------|
|2------------------------------------------------------|
|2------------------------------------------------------|
|0------------------------------------------------------|

|-------------------------------------------------------|
|-------------------------------------------------------|
|----9-------8-------9-------9h11-----------------------|
|9-9-----9-9-----9-9-----9-9----------------------------|
|-------------------------------------------------------|
|-------------------------------------------------------|
|. .     . .    . .     . .                             |
|-------------------------------------------------------|
|-------------------------------------------------------|
|-------------------------------------------------------|
|11-----------------------------------------------------|
|11-----------------------------------------------------|
|9------------------------------------------------------|

|-------------------------------------------------------|
|-------------------------------------------------------|
|----9-------8-------9-------9h11-----------------------|
|9-9-----9-9-----9-9-----9-9----------------------------|
|-------------------------------------------------------|
|-------------------------------------------------------|
|. .     . .    . .     . .                             |
|-------------------------------------------------------|
|-------------------------------------------------------|
|-------------------------------------------------------|
|9------------------------------------------------------|
|9------------------------------------------------------|
|7------------------------------------------------------|

|-------------------------------------------------------|
|-------------------------------------------------------|
|----9-------8-------9-------9h11-----------------------|
|9-9-----9-9-----9-9-----9-9----------------------------|
|-------------------------------------------------------|
|-------------------------------------------------------|
|. .     . .    . .     . .                             |
|-------------------------------------------------------|
|-------------------------------------------------------|
|-------------------------------------------------------|
|7------------------------------------------------------|
|7------------------------------------------------------|
|5------------------------------------------------------|

|-------------------------------------------------------|
|-------------------------------------------------------|
|----9-------8-------9-------9h11-----------------------|
|9-9-----9-9-----9-9-----9-9----------------------------|
|-------------------------------------------------------|
|-------------------------------------------------------|
|                                                       |
|-------------------------------------------------------|
|----9-------7-------9-------9h10-----------------------|
|-------------------------------------------------------|
|9-9-----9-9-----9-9-----9-9----------------------------|
|-------------------------------------------------------|
|-------------------------------------------------------|
|                                                       |
|-------------------------------------------------------|
|-------------------------------------------------------|
|-------------------------------------------------------|
|2------------------------------------------------------|
|2------------------------------------------------------|
|0------------------------------------------------------|

|-------------------------------------------------------|
|-------------------------------------------------------|
|----9-------8-------9-------9h11-----------------------|
|9-9-----9-9-----9-9-----9-9----------------------------|
|-------------------------------------------------------|
|-------------------------------------------------------|
|                                                       |
|-------------------------------------------------------|
|----9-------7-------9-------9h10-----------------------|
|-------------------------------------------------------|
|9-9-----9-9-----9-9-----9-9----------------------------|
|-------------------------------------------------------|
|-------------------------------------------------------|
|                                                       |
|-------------------------------------------------------|
|-------------------------------------------------------|
|-------------------------------------------------------|
|11-----------------------------------------------------|
|11-----------------------------------------------------|
|9------------------------------------------------------|

|-------------------------------------------------------|
|-------------------------------------------------------|
|----9-------8-------9-------9h11-----------------------|
|9-9-----9-9-----9-9-----9-9----------------------------|
|-------------------------------------------------------|
|-------------------------------------------------------|
|                                                       |
|-------------------------------------------------------|
|----9-------7-------9-------9h10-----------------------|
|-------------------------------------------------------|
|9-9-----9-9-----9-9-----9-9----------------------------|
|-------------------------------------------------------|
|-------------------------------------------------------|
|                                                       |
|-------------------------------------------------------|
|-------------------------------------------------------|
|-------------------------------------------------------|
|9------------------------------------------------------|
|9------------------------------------------------------|
|7------------------------------------------------------|

|-------------------------------------------------------|
|-------------------------------------------------------|
|----9-------8-------9-------9h11-----------------------|
|9-9-----9-9-----9-9-----9-9----------------------------|
|-------------------------------------------------------|
|-------------------------------------------------------|
|                                                       |
|-------------------------------------------------------|
|----9-------7-------9-------9h10-----------------------|
|-------------------------------------------------------|
|9-9-----9-9-----9-9-----9-9----------------------------|
|-------------------------------------------------------|
|-------------------------------------------------------|
|                                                       |
|-------------------------------------------------------|
|-------------------------------------------------------|
|-------------------------------------------------------|
|7------------------------------------------------------|
|7------------------------------------------------------|
|5------------------------------------------------------|
                     Pre-chorus
|-------------------------------------------------------|
|-------------------------------------------------------|
|--------9------------8-------9-------------------------|
|-------------------------------------------------------|
|7-7---7-----7-7---7-----7-7----------------------------|
|-------------------------------------------------------|
|                                                       |
|-------------------------------------------------------|
|-------------------------------------------------------|
|-------------------------------------------------------|
|2------------------------------------------------------|
|2------------------------------------------------------|
|0------------------------------------------------------|

|-------------------------------------------------------|
|-------------------------------------------------------|
|--------9-----------8-------9--------------------------|
|-------------------------------------------------------|
|7-7---7-----7-7---7-----7-7----------------------------|
|-------------------------------------------------------|
|                                                       |
|-------------------------------------------------------|
|-------------------------------------------------------|
|-------------------------------------------------------|
|-------------------------------------------------------|
|-------------------------------------------------------|
|-------------------------------------------------------|

|-------------------------------------------------------|
|-------------------------------------------------------|
|--------9-----------8-------9--------------------------|
|-------------------------------------------------------|
|7-7---7-----7-7---7-----7-7----------------------------|
|-------------------------------------------------------|
|                                                       |
|-------------------------------------------------------|
|-------------------------------------------------------|
|-------------------------------------------------------|
|7------------------------------------------------------|
|7------------------------------------------------------|
|5------------------------------------------------------|

|-------------------------------------------------------|
|-------------------------------------------------------|
|--------9-----------8-------9--------------------------|
|-------------------------------------------------------|
|7-7---7-----7-7---7-----7-7----------------------------|
|-------------------------------------------------------|
|                                                       |
|-------------------------------------------------------|
|-------------------------------------------------------|
|-------------------------------------------------------|
|9------------------------------------------------------|
|9------------------------------------------------------|
|7------------------------------------------------------|

|-------------------------------------------------------|
|-------------------------------------------------------|
|--------9-----------8-------9--------------------------|
|-------------------------------------------------------|
|7-7---7-----7-7---7-----7-7----------------------------|
|-------------------------------------------------------|
|                                                       |
|-------------------------------------------------------|
|-------------------------------------------------------|
|-------------------------------------------------------|
|11-----------------------------------------------------|
|11-----------------------------------------------------|
|9------------------------------------------------------|

|-------------------------------------------------------|
|-------------------------------------------------------|
|--------9-----------8-------9--------------------------|
|-------------------------------------------------------|
|7-7---7-----7-7---7-----7-7----------------------------|
|-------------------------------------------------------|
|                                                       |
|-------------------------------------------------------|
|-------------------------------------------------------|
|-------------------------------------------------------|
|9------------------------------------------------------|
|9------------------------------------------------------|
|7------------------------------------------------------|

|-------------------------------------------------------|
|-------------------------------------------------------|
|--------9-----------8-------9--------------------------|
|-------------------------------------------------------|
|7-7---7-----7-7---7-----7-7----------------------------|
|-------------------------------------------------------|
|                                                       |
|-------------------------------------------------------|
|-------------------------------------------------------|
|-------------------------------------------------------|
|7------------------------------------------------------|
|7------------------------------------------------------|
|5------------------------------------------------------|

|-------------------------------------------------------|
|-------------------------------------------------------|
|--------9-----------8-------9--------------------------|
|-------------------------------------------------------|
|7-7---7-----7-7---7-----7-7----------------------------|
|-------------------------------------------------------|
|                                                       |
|-------------------------------------------------------|
|-------------------------------------------------------|
|-------------------------------------------------------|
|9------------------------------------------------------|
|9------------------------------------------------------|
|7------------------------------------------------------|
               "Like We've Got...
|-------------------------------------------------------|
|-------------------------------------------------------|
|-------------------------------------------------------|
|-------------------------------------------------------|
|-------------------------------------------------------|
|-------------------------------------------------------|
|                                                       |
|-------------------------------------------------------|
|-------------------------------------------------------|
|-------------------------------------------------------|
|11-----------------------------------------------------|
|11-----------------------------------------------------|
|9------------------------------------------------------|
                      Nothing to Hide"
|-------------------------------------------------------|
|-------------------------------------------------------|
|-------------------------------------------------------|
|-------------------------------------------------------|
|-------------------------------------------------------|
|-------------------------------------------------------|
|                                                       |
|-------------------------------------------------------|
|-------------------------------------------------------|
|-------------------------------------------------------|
|9------------------------------------------------------|
|9------------------------------------------------------|
|7------------------------------------------------------|

|-------------------------------------------------------|
|-------------------------------------------------------|
|-------------------------------------------------------|
|-------------------------------------------------------|
|-------------------------------------------------------|
|-------------------------------------------------------|
|                                                       |
|-------------------------------------------------------|
|-------------------------------------------------------|
|-------------------------------------------------------|
|7------------------------------------------------------|
|7------------------------------------------------------|
|5------------------------------------------------------|

|-------------------------------------------------------|
|-------------------------------------------------------|
|-------------------------------------------------------|
|-------------------------------------------------------|
|-------------------------------------------------------|
|-------------------------------------------------------|
|                                                       |
|-------------------------------------------------------|
|-------------------------------------------------------|
|-------------------------------------------------------|
|9------------------------------------------------------|
|9------------------------------------------------------|
|7------------------------------------------------------|

                    Chorus
|-------------------------------------------------------|
|-------------------------------------------------------|
|----2---4-6---2-{4}------------------------------------|
|2---x---x-x---x-{x}Play-First-Time-Only----------------|
|2---0---2-4---0-{2}------------------------------------|
|0------------------------------------------------------|
|                                                       | 
|-------------------------------------------------------|
|-------------------------------------------------------|
|9---11-13-11--9-{11}-----------------------------------|
|x---x---x-x---x-{x-}Play-First-Time-Only---------------| 2x
|7---9--11-9---7-{9-}-----------------------------------|
|-------------------------------------------------------|
|                                                       |
|-------------------------------------------------------|
|-------------------------------------------------------|
|-------------------------------------------------------|
|2---7---9-11--7-{9}------------------------------------|
|2---7---9-11--7-{9}Play-First-Time-Only----------------|
|0---5---7-9---5-{7}------------------------------------|

                   Bridge 2
|-------------------------------------------------------|
|-------------------------------------------------------|
|9-----11----13----14-----------------------------------|
|x-----x-----x-----x------------------------------------|
|7-----9-----11----12-----------------------------------|
|-------------------------------------------------------|
|                                                       | 4x
|-------------------------------------------------------|
|-------------------------------------------------------|
|9-----8-----6-----4------------------------------------|
|x-----x-----x-----x------------------------------------|
|7-----6-----4-----2------------------------------------|
|-------------------------------------------------------|
                    Chorus/Outro
|-------------------------------------------------------|
|-------------------------------------------------------|
|----*2*---4-6---2-4------------------------------------|
|2---*x*---x-x---x-x------------------------------------|
|2---*0*---2-4---0-2------------------------------------|
|0------------------------------------------------------|
|           *Play Second Time Only*                     | 
|-------------------------------------------------------|
|-------------------------------------------------------|
|9---*11*-13-11--9-11-----------------------------------|
|x---*x*---x-x---x-x------------------------------------| 2x
|7---*9*--11-9---7-9------------------------------------|
|-------------------------------------------------------|
|           *Play Second Time Only*                     |
|-------------------------------------------------------|
|-------------------------------------------------------|
|-------------------------------------------------------|
|2---*7*---9-11--7-9------------------------------------|
|2---*7*---9-11--7-9------------------------------------|
|0---*5*---7-9---5-7------------------------------------|


|-------------------------------------------------------|
|-------------------------------------------------------|
|9-----11-----13-----14---------------------------------|
|x-----x------x------x------2---------------------------|
|7-----9------11-----12-----2---------------------------|
|---------------------------0---------------------------|
|                                                       |
|-------------------------------------------------------|
|-------------------------------------------------------|
|9-----8------9------11---------------------------------|
|x-----x------x------x------2---------------------------|
|7-----6------7------9------2---------------------------|
|---------------------------0---------------------------|
comments
We did not receive enough feedback on this tab! Please rate:
print report bad tab
1 2 3 4 5
2 comments total.
0 reply
Brent.R wrote on March 22 2010, 06:34 pm

bit hard to follow, i'd reccomend using " x2's" and such to shorten the length, as well as adding indicators as to when stuff is played. for example: "intro" "Verse" "chorus"

0 reply
Brent.R wrote on March 22 2010, 06:35 pm

wait nevermind i see you've got the indicator's in aha my bad.

I want to post or [tab]
guest
You may want to rate the tab now too:
select rating
Please do not post tabs as comments. Select "correction" instead!