Oops, an error
Loading. Please wait.

I Feel Like Dancing Tab

43,962 views 96 this week
2 commentsread comments
1 2 3 4 5
excellent!
x 16
Autoscroll
+/-
esc
set tempo
stop
Contributor
Difficulty
intermediate
WARNING: You are trying to view
                                    content from Ultimate-Guitar.com
                                    in an unauthorized application,
                                    which is prohibited.

                                    Please use an official Ultimate
                                    Guitar Tabs application for iPhone,
                                    iPad or Android to access legitimate
                                    chords, guitar, bass, and drum tabs
                                    from Ultimate-Guitar.com database.

                                    Type "ultimate guitar tabs" in Apple
                                    App Store's or Android Market's
                                    search to find the application.
The new All Time Low song from the album, Dirty Work
This is all tabbed by ear so it may not be 100% perfect

Guitar 1 (Lead)
Intro
(0.00 - 0.05)
e-----------------------------------------------------------------|
B-----------------------------------------------------------------|
G-------9---------9-x---------x-9-----------5-5-5-5-5-4-----------|
D-------9---------9-x---------x-9-----------5-5-5-5-5-4-----------|
A-------7---------7-x---------x-7-----------3-3-3-3-3-2-----------|
E----------0-----------0----0------0------0-----------------------|

Verse 1
(0.05 - 0.26)
e----------------------------------------------------------------------|
B----------------------------------------------------------------------|
G-9----9-x------x-9----9-x------x-9----9-x-------x-2-------5-5-5-5-5-4-|
D-9----9-x------x-9----9-x------x-9----9-x-------x-2-------5-5-5-5-5-4-|(x2)
A-7----7-x------x-7----7-x------x-7----7-x-------x-0-------3-3-3-3-3-2-|
E----0------0---0----0------0---0----0------0---0-----0---0------------|

Pre-Chorus 1
(0.26 - 0.31)
e--------------------------------------------------------------------------|
B--------------------------------------------------------------------------|
G--11--11-x-x---x-11--x-11--x-11-11--14--14--x-x---x-16---x-16---x-16-16\--|
D--11--11-x-x---x-11--x-11--x-11-11--14--14--x-x---x-16---x-16---x-16-16\--|
A--9---9--x-x---x-9---x-9---x-9--9---12--12--x-x---x-14---x-14---x-14-14\--|
E--------------------------------------------------------------------------|

Chorus 1
(0.31 - 0.50)
e------------------------------------------------------------------------|
B------------------------------------------------------------------------|
G----------------4--4--x-x--x--2--2-------9----12--12--11p9--------------|
D--2--2--x-x--x--4--4--x-x--x--2--2-11--11-------------------------------|
A--2--2--x-x--x--2--2--x-x--x--0--0--------------------------------------|
E--0--0--x-x--x----------------------------------------------------------|

e----------------------------------------------------------------------|
B----------------------------------------------------------------------|
G----------------4--4--x-x--x--2--2--x-x--x-5-5-5-5-5-4----------------|
D--2--2--x-x--x--4--4--x-x--x--2--2--x-x--x-5-5-5-5-5-4----------------|
A--2--2--x-x--x--2--2--x-x--x--0--0--x-x--x-3-3-3-3-3-2----------------|
E--0--0--x-x--x--------------------------------------------------------|

e--------------------------------------------------------------------------|
B--------------------------------------------------------------------------|
G-------------4--4--4--4--2--2--2--2--2--2--2-5-5-5-5-6--6-x-x--x-4--4-x-x-|
D-2--2--2--2--4--4--4--4--2--2--2--2--2--2--2-5-5-5-5-6--6-x-x--x-4--4-x-x-|
A-2--2--2--2--2--2--2--2--0--0--0--0--0--0--0-3-3-3-3-4--4-x-x--x-2--2-x-x-|
E-0--0--0--0---------------------------------------------------------------|

Pre-Verse 2
(0.50 - 0.55)
e-----------------------------------------------------------------|
B-----------------------------------------------------------------|
G-------9---------9-x---------x-9-----------5-5-5-5-5-4-----------|
D-------9---------9-x---------x-9-----------5-5-5-5-5-4-----------|
A-------7---------7-x---------x-7-----------3-3-3-3-3-2-----------|
E----------0-----------0----0------0------0-----------------------|

Verse 2
(0.55 - 1.16)
e----------------------------------------------------------------------|
B----------------------------------------------------------------------|
G-9----9-x------x-9----9-x------x-9----9-x-------x-2-------5-5-5-5-5-4-|
D-9----9-x------x-9----9-x------x-9----9-x-------x-2-------5-5-5-5-5-4-|(x2)
A-7----7-x------x-7----7-x------x-7----7-x-------x-0-------3-3-3-3-3-2-|
E----0------0---0----0------0---0----0------0---0-----0---0------------|

Pre-Chorus 2
(1.16 - 1.21)
e------------------------------------------------------------|
B----7--7h9p7---------7--7h9p7-------7--7h8p7----------------|
G------9-----9p6h9------9-----9p6h9----9-----9p6h9-----------|
D------------------------------------------------------------|
A------------------------------------------------------------|
E------------------------------------------------------------|

Chorus 2
(1.21 - 1.39)
e------------------------------------------------------------------|
B------------------------------------------12b--9b-----------------|
G----------------4--4--x-x--x--2--2----9-----------11p9------------|
D--2--2--x-x--x--4--4--x-x--x--2--2-11--11-------------------------|
A--2--2--x-x--x--2--2--x-x--x--0--0--------------------------------|
E--0--0--x-x--x----------------------------------------------------|

e----------------------------------------------------------------------|
B----------------------------------------------------------------------|
G----------------4--4--x-x--x--2--2--x-x--x-5-5-5-5-5-4----------------|
D--2--2--x-x--x--4--4--x-x--x--2--2--x-x--x-5-5-5-5-5-4----------------|
A--2--2--x-x--x--2--2--x-x--x--0--0--x-x--x-3-3-3-3-3-2----------------|
E--0--0--x-x--x--------------------------------------------------------|

e--------------------------------------------------------------------------|
B--------------------------------------------------------------------------|
G-------------4--4--4--4--2--2--2--2--2--2--2-5-5-5-5-6--6-x-x--x-4--4-x-x-|
D-2--2--2--2--4--4--4--4--2--2--2--2--2--2--2-5-5-5-5-6--6-x-x--x-4--4-x-x-|
A-2--2--2--2--2--2--2--2--0--0--0--0--0--0--0-3-3-3-3-4--4-x-x--x-2--2-x-x-|
E-0--0--0--0---------------------------------------------------------------|

Pre-Bridge
(1.39 - 1.42)
e-----------------------------------------|
B-----------------------------------------|
G-------9-----------5-5-5-5-5-4-----------|
D-------9-----------5-5-5-5-5-4-----------|
A-------7-----------3-3-3-3-3-2-----------|
E----------0------0-----------------------|

Bridge
(1.42 - 1.52)
Just Bass Plays
G-------------------------------------|
D-----------------------------7~------|
A-----4~-------------4~---------------|
E-------------5~----------------------|
(1.52 - 2.03)
    PM.......................................................
e--------------------------------------------------------------------------|
B--------------------------------------------------------------------------|
G--9----------------------------------------------2-2-2-2-2-2-2-2---x-x--x-|
D--9--2--2--2--2--2--2--2--4--4--4--4--4--4--4--4-2-2-2-2-2-2-2-2---x-x--x-|
A--7--2--2--2--2--2--2--2--4--4--4--4--4--4--4--4-0-0-0-0-0-0-0-0---x-x--x-|
E-----0--0--0--0--0--0--0--2--2--2--2--2--2--2--2--------------------------|

Chorus 3
(2.03 - 2.23)
e------------------------------------9--9--9--9--9--9--9--9---------|
B------------------------------------10-10-10-10-10-10-10-10--------|
G----------------4--4--x-x--x--2--2---------------------------------|
D--2--2--x-x--x--4--4--x-x--x--2--2---------------------------------|
A--2--2--x-x--x--2--2--x-x--x--0--0---------------------------------|
E--0--0--x-x--x-----------------------------------------------------|

e----------------------------------------------------------------------|
B----------------------------------------------------------------------|
G----------------4--4--x-x--x--2--2--x-x--x-5-5-5-5-5-4----------------|
D--2--2--x-x--x--4--4--x-x--x--2--2--x-x--x-5-5-5-5-5-4----------------|
A--2--2--x-x--x--2--2--x-x--x--0--0--x-x--x-3-3-3-3-3-2----------------|
E--0--0--x-x--x--------------------------------------------------------|

e-----------------------------------------------------------------|
B-----------------------------------------------------------------|
G---------4-4-4-4-2-2-2-2-2-2-2-5-5-5-5-6--6-x-x--x-4--4-x-x--x---|
D-2-2-2-2-4-4-4-4-2-2-2-2-2-2-2-5-5-5-5-6--6-x-x--x-4--4-x-x--x---|
A-2-2-2-2-2-2-2-2-0-0-0-0-0-0-0-3-3-3-3-4--4-x-x--x-2--2-x-x--x---|
E-0-0-0-0---------------------------------------------------------|

e----------------------------------|
B----------------------------------|
G----------------------------------|
D-----2--2--x-x--x-2--2--x-x--x----|
A-----2--2--x-x--x-2--2--x-x--x----|
E-----0--0--x-x--x-0--0--x-x--x----|

Outro
(2.23 - 3.00)
e-------------------------------------------------------------------------|
B-------------------------------------------------------------------------|
G-9-9-9-9-9-9-9-9-8-8-8-8-8-8-8-8-9-9-9-9-9-9-9-9-14-14-14-14-14-14-14-13-|   (x2)
D-x-x-x-x-x-x-x-x-x-x-x-x-x-x-x-x-x-x-x-x-x-x-x-x-x--x--x--x--x--x--x--x--|
A-7-7-7-7-7-7-7-7-6-6-6-6-6-6-6-6-7-7-7-7-7-7-7-7-12-12-12-12-12-12-12-11-|
E-------------------------------------------------------------------------|

e-----------------------------------------------------------------------|
B-----------------------------------------------------------------------|
G--9-9-9-9-9-9-9-9-8-8-8-8-8-8-8-8-9-9-9-9-9-9-9-9-9-9-9-9-9-9-9-8------|
D--x-x-x-x-x-x-x-x-x-x-x-x-x-x-x-x-x-x-x-x-x-x-x-x-x-x-x-x-x-x-x-x------|
A--7-7-7-7-7-7-7-7-6-6-6-6-6-6-6-6-7-7-7-7-7-7-7-7-7-7-7-7-7-7-7-6------|
E-----------------------------------------------------------------------|

e------------------------------------------------------------------------|
B------------------------------------------------------------------------|
G--9-9-9-9-9-9-9-9-8-8-8-8-8-8-8-8-6-6-6-6-14-14-14-14-13-13-13-13-------|
D--x-x-x-x-x-x-x-x-x-x-x-x-x-x-x-x-x-x-x-x-x--x--x--x--x--x--x--x--------|
A--7-7-7-7-7-7-7-7-6-6-6-6-6-6-6-6-4-4-4-4-12-12-12-12-11-11-11-11-------|
E------------------------------------------------------------------------|

e-------------------------------------|
B-------------------------------------|
G-----15-15-15-15-15-15-15-15-14~-----|
D-----x--x--x--x--x--x--x--x--x-------|
A-----13-13-13-13-13-13-13-13-12~-----|
E-------------------------------------|

e----------------------------|
B----------------------------|
G------5-5-5-5-5-4-----------|
D------5-5-5-5-5-4-----------|
A------3-3-3-3-3-2-----------|
E----------------------------|


Guitar 2 (Rhythm)
Intro
(0.00 - 0.05)
e----------------------------|
B----------------------------|
G------5-5-5-5-5-4-----------|
D------5-5-5-5-5-4-----------|
A------3-3-3-3-3-2-----------|
E----------------------------|

Verse 1
(0.05 - 0.26)
e----------------------------|
B----------------------------|
G------5-5-5-5-5-4-----------|   (x2)
D------5-5-5-5-5-4-----------|
A------3-3-3-3-3-2-----------|
E----------------------------|

Pre-Chorus 1
(0.26 - 0.31)
No Guitar except slide into Chorus
e------------------------------|
B------------------------------|
G------------------------------|
D------------------------------|
A------------------------------|
E-------------------17\--------|

Chorus
(0.31 - 0.50)
e----------------------------------------------------------------------|
B----------------------------------------------------------------------|
G----------------4--4--x-x--x--2--2--x-x--x--2--2--x-x--x--------------|
D--2--2--x-x--x--4--4--x-x--x--2--2--x-x--x--2--2--x-x--x--------------|
A--2--2--x-x--x--2--2--x-x--x--0--0--x-x--x--0--0--x-x--x--------------|
E--0--0--x-x--x--------------------------------------------------------|

e----------------------------------------------------------------------|
B----------------------------------------------------------------------|
G----------------4--4--x-x--x--2--2--x-x--x-5-5-5-5-5-4----------------|
D--2--2--x-x--x--4--4--x-x--x--2--2--x-x--x-5-5-5-5-5-4----------------|
A--2--2--x-x--x--2--2--x-x--x--0--0--x-x--x-3-3-3-3-3-2----------------|
E--0--0--x-x--x--------------------------------------------------------|

e--------------------------------------------------------------------------|
B--------------------------------------------------------------------------|
G-------------4--4--4--4--2--2--2--2--2--2--2-5-5-5-5-6--6-x-x--x-4--4-x-x-|
D-2--2--2--2--4--4--4--4--2--2--2--2--2--2--2-5-5-5-5-6--6-x-x--x-4--4-x-x-|
A-2--2--2--2--2--2--2--2--0--0--0--0--0--0--0-3-3-3-3-4--4-x-x--x-2--2-x-x-|
E-0--0--0--0---------------------------------------------------------------|

Pre-Verse 2
(0.50 - 0.55)
e----------------------------|
B----------------------------|
G------5-5-5-5-5-4-----------|
D------5-5-5-5-5-4-----------|
A------3-3-3-3-3-2-----------|
E----------------------------|

Verse 2
(0.55 - 1.16)
e----------------------------|
B----------------------------|
G------5-5-5-5-5-4-----------|   (x2)
D------5-5-5-5-5-4-----------|
A------3-3-3-3-3-2-----------|
E----------------------------|

Pre-Chorus 2
(1.16 - 1.21)
No Guitar

Chorus 2
(1.21 - 1.39)
e----------------------------------------------------------------------|
B----------------------------------------------------------------------|
G----------------4--4--x-x--x--2--2--x-x--x--2--2--x-x--x--------------|
D--2--2--x-x--x--4--4--x-x--x--2--2--x-x--x--2--2--x-x--x--------------|
A--2--2--x-x--x--2--2--x-x--x--0--0--x-x--x--0--0--x-x--x--------------|
E--0--0--x-x--x--------------------------------------------------------|

e----------------------------------------------------------------------|
B----------------------------------------------------------------------|
G----------------4--4--x-x--x--2--2--x-x--x-5-5-5-5-5-4----------------|
D--2--2--x-x--x--4--4--x-x--x--2--2--x-x--x-5-5-5-5-5-4----------------|
A--2--2--x-x--x--2--2--x-x--x--0--0--x-x--x-3-3-3-3-3-2----------------|
E--0--0--x-x--x--------------------------------------------------------|

e--------------------------------------------------------------------------|
B--------------------------------------------------------------------------|
G-------------4--4--4--4--2--2--2--2--2--2--2-5-5-5-5-6--6-x-x--x-4--4-x-x-|
D-2--2--2--2--4--4--4--4--2--2--2--2--2--2--2-5-5-5-5-6--6-x-x--x-4--4-x-x-|
A-2--2--2--2--2--2--2--2--0--0--0--0--0--0--0-3-3-3-3-4--4-x-x--x-2--2-x-x-|
E-0--0--0--0---------------------------------------------------------------|

Pre-Bridge
(1.39 - 1.42)
e----------------------------|
B----------------------------|
G------5-5-5-5-5-4-----------|
D------5-5-5-5-5-4-----------|
A------3-3-3-3-3-2-----------|
E----------------------------|

Bridge
(1.42 - 1.52)
Just Bass Plays
G-------------------------------------|
D-----------------------------7~------|
A-----4~-------------4~---------------|
E-------------5~----------------------|
(1.52 - 2.03)
    PM.......................................................
e--------------------------------------------------------------------------|
B--------------------------------------------------------------------------|
G--9----------------------------------------------2-2-2-2-2-2-2-2---x-x--x-|
D--9--2--2--2--2--2--2--2--4--4--4--4--4--4--4--4-2-2-2-2-2-2-2-2---x-x--x-|
A--7--2--2--2--2--2--2--2--4--4--4--4--4--4--4--4-0-0-0-0-0-0-0-0---x-x--x-|
E-----0--0--0--0--0--0--0--2--2--2--2--2--2--2--2--------------------------|

Chorus 3
(2.03 - 2.23)
e----------------------------------------------------------------------|
B----------------------------------------------------------------------|
G----------------4--4--x-x--x--2--2--x-x--x--2--2--x-x--x--------------|
D--2--2--x-x--x--4--4--x-x--x--2--2--x-x--x--2--2--x-x--x--------------|
A--2--2--x-x--x--2--2--x-x--x--0--0--x-x--x--0--0--x-x--x--------------|
E--0--0--x-x--x--------------------------------------------------------|

e----------------------------------------------------------------------|
B----------------------------------------------------------------------|
G----------------4--4--x-x--x--2--2--x-x--x-5-5-5-5-5-4----------------|
D--2--2--x-x--x--4--4--x-x--x--2--2--x-x--x-5-5-5-5-5-4----------------|
A--2--2--x-x--x--2--2--x-x--x--0--0--x-x--x-3-3-3-3-3-2----------------|
E--0--0--x-x--x--------------------------------------------------------|

e-----------------------------------------------------------------|
B-----------------------------------------------------------------|
G---------4-4-4-4-2-2-2-2-2-2-2-5-5-5-5-6--6-x-x--x-4--4-x-x--x---|
D-2-2-2-2-4-4-4-4-2-2-2-2-2-2-2-5-5-5-5-6--6-x-x--x-4--4-x-x--x---|
A-2-2-2-2-2-2-2-2-0-0-0-0-0-0-0-3-3-3-3-4--4-x-x--x-2--2-x-x--x---|
E-0-0-0-0---------------------------------------------------------|

e----------------------------------|
B----------------------------------|
G----------------------------------|
D-----2--2--x-x--x-2--2--x-x--x----|
A-----2--2--x-x--x-2--2--x-x--x----|
E-----0--0--x-x--x-0--0--x-x--x----|

Outro
(2.23 - 3.00)
e----------------------------------------------------------------------|
B----------------------------------------------------------------------|
G----------------4--4--x-x--x--2--2--x-x--x--2--2--x-x--x--------------|
D--2--2--x-x--x--4--4--x-x--x--2--2--x-x--x--2--2--x-x--x--------------|
A--2--2--x-x--x--2--2--x-x--x--0--0--x-x--x--0--0--x-x--x--------------|
E--0--0--x-x--x--------------------------------------------------------|

e----------------------------------------------------------------------|
B----------------------------------------------------------------------|
G----------------4--4--x-x--x--2--2--x-x--x-5-5-5-5-5-4----------------|
D--2--2--x-x--x--4--4--x-x--x--2--2--x-x--x-5-5-5-5-5-4----------------|
A--2--2--x-x--x--2--2--x-x--x--0--0--x-x--x-3-3-3-3-3-2----------------|
E--0--0--x-x--x--------------------------------------------------------|

e----------------------------------------------------------------|
B----------------------------------------------------------------|
G----------4-4-4-4-2-2-2-2-2-2-2-5-5-5-5-6--6--6--6--4--4--4--4--|
D--2-2-2-2-4-4-4-4-2-2-2-2-2-2-2-5-5-5-5-6--6--6--6--4--4--4--4--|
A--2-2-2-2-2-2-2-2-0-0-0-0-0-0-0-3-3-3-3-4--4--4--4--2--2--2--2--|
E--0-0-0-0-------------------------------------------------------|

e-----------------------------|
B-----------------------------|
G----2--2--2--2--2--2--2--2---|
D----2--2--2--2--2--2--2--2---|
A----0--0--0--0--0--0--0--0---|
E-----------------------------|

e-------------------------------------------------------------------------|
B-------------------------------------------------------------------------|
G---------------2-----------------------------------------5-5-5-5-5-4-----|
D---4--4--4--4--2-----------------------------------------5-5-5-5-5-4-----|
A---4--4--4--4--0-----------------------------------------3-3-3-3-3-2-----|
E---2--2--2--2------------------------------------------------------------|


Guitar 3 (Clean)
Intro
(0.00 - 0.05)
No Guitar

Verse 1
(0.05 - 0.15)
No Guitar
(0.15 - 0.26)
e------7~----7~----5~----7~----7~----7~----5~--  [----------------]  ----|
B----9~----9~----5~----9~-----9~----9~----5~---  [----------------]  ----|
G--9~----8~----6~----8~-----9~----8~----6~-----  [---5-5-5-5-5-4--]  ----|
D----------------------------------------------  [---5-5-5-5-5-4--]  ----|
A------------------------------------------------[---3-3-3-3-3-2--]  ----|
E----------------------------------------------  [----------------]  ----|

Pre-Chorus 1
(0.26 - 0.31)
No Guitar

Chorus 1
(0.31 - 0.50)
No Guitar

Pre-Verse 2
(0.50 - 0.55)
No Guitar

Verse 2
(0.55 - 1.16)
No Guitar, just Synth Sounds

Pre-Chorus 2
(1.16 - 1.21)
No Guitar

Chorus 2
(1.21 - 1.39)
No Guitar

Pre-Bridge
(1.39 - 1.42)
No Guitar

Bridge
(1.42 - 2.03)
More synth sounds, but sounds ok on guitar played like this:
e--12~----9~-----16~----17~----12~----14~----12~---------|
B--14~----11~----14~----14~----12~----14~----12~---------|
G--------------------------------------------------------|
D--------------------------------------------------------|
A--------------------------------------------------------|
E--------------------------------------------------------|

Chorus 3
(2.03 - 2.23)
No Guitar

Outro
(2.23 - 3.00)
No Guitar

Thanks for checking out the tab!
If you have any corrections or comments then feel free to let me know!
Enjoy!
comments
print report bad tab
2 comments total.
0 reply
henkey12 wrote on May 9 2011, 10:55 am

Sounds pretty accurate to me ;D 5*

0 reply
SwagStar0110 wrote on August 13 2011, 08:27 pm

Awesome tab dude :D 5 stars!

I want to post or [tab]
guest
You may want to rate the tab now too:
select rating
Please do not post tabs as comments. Select "correction" instead!