Oops, an error
Loading. Please wait.

If These Sheets Were The States Tab

10,958 views 69 this week
no commentswrite comment
1 2 3 4 5
excellent!
x 10
Autoscroll
+/-
esc
set tempo
stop
Contributor
Tuning
D A D G B E
WARNING: You are trying to view
                                    content from Ultimate-Guitar.com
                                    in an unauthorized application,
                                    which is prohibited.

                                    Please use an official Ultimate
                                    Guitar Tabs application for iPhone,
                                    iPad or Android to access legitimate
                                    chords, guitar, bass, and drum tabs
                                    from Ultimate-Guitar.com database.

                                    Type "ultimate guitar tabs" in Apple
                                    App Store's or Android Market's
                                    search to find the application.
All Time Low - If These Sheets Were The State Guitar Tab
from Track 3 of Don't Panic (2012)
by Scalar719

Tuning: Drop D



[Intro]

Guitar 1 (lead)
e|---------------------------------------------------------------------------|
B|-----0---0-------0---0-------0----0--------0---0---------------------------|
G|---0---0---0---0---0---0---0----0----0---0---0----0------------------------|
D|---------------------------------------------------------------------------|
A|-2----2----2---3---3---3---------------------------------------------------|
D|-------------------------5----5----5---5----5---5--------------------------|
[pm..........................................................................] 

e|---------------------------------------------------------------------------|
B|-----0---0-------0---0-------0----0----------------------------------------|
G|---0---0---0---0---0---0---0----0-----0-(trem. dive down )-----------------|
D|---------------------------------------------------------------------------|
A|-7---7----7---3---3---3---5---5----5---------------------------------------|
D|---------------------------------------------------------------------------|
[pm...................................]


Guitar 1 (lead)
e|---------------------------------------------------------------------------|
B|---------------------------------------------------------------------------|
G|-16-16--16\12/16--17-17-17-17-17-17-17--12-12-12-19-19--12-12-12-12-12-12--|
D|-x--x---x--x--x---x--x--x--x--x--x--x---x--x--x--x--x---x--x--x--x--x--x---|
A|-14-14--14\10/14--15-15-15-15-15-15-15--10-10-10-17-17--10-10-10-10-10-10--|
D|---------------------------------------------------------------------------|

e|---------------------------------------------------------------------------|
B|---------------------------------------------------------------------------|
G|-16-16--16\12/16--17-17-17-17-17-17-17--16-16-16-17-16--14-14-14-14-14-----|
D|-x--x---x--x--x---x--x--x--x--x--x--x---x--x--x--x--x---x--x--x--x--x------|
A|-14-14--14\10/14--15-15-15-15-15-15-15--14-14-14-15-14--12-12-12-12-12-----|
D|---------------------------------------------------------------------------|


Guitar 2 (Rhythm)
e|---------------------------------------------------------------------------|
B|---------------------------------------------------------------------------|
G|---------------------------------------------------------------------------|
D|---9-9-9-9-9-9/10-10-10-10-10-10-10------5-5-5-5-5-5-5--5-5-4-4-4-4--------|
A|---9-9-9-9-9-9/10-10-10-10-10-10-10------5-5-5-5-5-5-5--5-5-4-4-4-4--------|
D|---9-9-9-9-9-9/10-10-10-10-10-10-10------5-5-5-5-5-5-5--5-5-4-4-4-4--------|

e|---------------------------------------------------------------------------|
B|---------------------------------------------------------------------------|
G|---------------------------------------------------------------------------|
D|---2-2-2-2-2---10-10-10-10-10-10---------0-0-0-0-0-0-0--0-0-0-0-0-0--------| 
A|---2-2-2-2-2---10-10-10-10-10-10---------0-0-0-0-0-0-0--0-0-0-0-0-0--------|
D|---2-2-2-2-2---10-10-10-10-10-10---------0-0-0-0-0-0-0--0-0-0-0-0-0--------|


[Verse 1]

Guitar 1 (lead, clean)
e|---------------------------------------------------------------------------|
B|-----0---0-------0---0-------0----0--------0---0---------------------------|
G|---0---0---0---0---0---0---0----0----0---0---0----0------------------------|
D|---------------------------------------------------------------------------|
A|-2----2----2---3---3---3---------------------------------------------------|
D|-------------------------5----5----5---5----5---5--------------------------|

e|---------------------------------------------------------------------------|
B|-----0---0-------0---0-------0----0----------------------------------------|
G|---0---0---0---0---0---0---0----0----0-----2----2--------------------------|
D|-----------------------------------------4----4----4-----------------------|
A|-7---7----7---3---3---3---5---5----5---5----5----5-------------------------|
D|---------------------------------------------------------------------------|

e|---------------------------------------------------------------------------|
B|-----0---0-------0---0-------0----0--------0---0---------------------------|
G|---0---0---0---0---0---0---0----0----0---0---0----0------------------------|
D|---------------------------------------------------------------------------|
A|-2----2----2---3---3---3---------------------------------------------------|
D|-------------------------5----5----5---5----5---5--------------------------|

e|---------------------------------------------------------------------------|
B|-----0---0-------0---0-------0----0----------------------------------------|
G|---0---0---0---0---0---0---0----0----0-------------------------------------| 
D|---------------------------------------------------------------------------|
A|-7---7----7---3---3---3---5---5----5---5-----------------------------------|
D|---------------------------------------------------------------------------|


[Chorus 1]

Guitar 1 (lead)
e|---------------------------------------------------------------------------|
B|---------------------------------------------------------------------------|
G|-12-12-12-12-12-12-12-12-12-12-12-12--11/12-12-12-12-12--11-11-11-11-11-11-|
D|-x--x--x--x--x--x--x--x--x--x--x--x---x-/x--x--x--x--x---x--x--x--x--x--x--|
A|-10-10-10-10-10-10-10-10-10-10-10-10--9-/10-10-10-10-10--9--9--9--9--9--9--|
D|---------------------------------------------------------------------------|

e|---------------------------------------------------------------------------|
B|---------------------------------------------------------------------------|
G|-12-12-12-12-12-12-12-12-12-12-12-12--7-7-7-7-7-7-7--7-7-7-7-7-7--19-17-16-|
D|-x--x--x--x--x--x--x--x--x--x--x--x---x-x-x-x-x-x-x--x-x-x-x-x-x--x--x--x--|
A|-10-10-10-10-10-10-10-10-10-10-10-10--5-5-5-5-5-5-5--5-5-5-5-5-5--17-15-14-|
D|---------------------------------------------------------------------------|

e|---------------------------------------------------------------------------|
B|---------------------------------------------------------------------------|
G|-12-12-12-12-12-12-12-12-12-12-12-12--11/12-12-12-12-12--11-11-11-11-11-11-|
D|-x--x--x--x--x--x--x--x--x--x--x--x---x-/x--x--x--x--x---x--x--x--x--x--x--|
A|-10-10-10-10-10-10-10-10-10-10-10-10--9-/10-10-10-10-10--9--9--9--9--9--9--|
D|---------------------------------------------------------------------------|

e|---------------------------------------------------------------------------|
B|---------------------------------------------------------------------------|
G|-21-21-21-21-21-21-19-19-19-17-17-17--24-24-24-24-24-24-24-24-24-24-24-24--|
D|-x--x--x--x--x--x--x--x--x--x--x--x---x--x--x--x--x--x--x--x--x--x--x--x---|
A|-19-19-19-19-19-19-17-17-17-15-15-15--22-22-22-22-22-22-22-22-22-22-22-22--|
D|---------------------------------------------------------------------------|


Guitar 2 (Rhythm)
e|---------------------------------------------------------------------------|
B|---------------------------------------------------------------------------|
G|---------------------------------------------------------------------------|
D|--10-10-10-10-10-10-10--5-5-5-5-5-5-5--2-2-2-2-2-2-2--0-0-0-0-0-0-0--------|
A|--10-10-10-10-10-10-10--5-5-5-5-5-5-5--2-2-2-2-2-2-2--0-0-0-0-0-0-0--------|
D|--10-10-10-10-10-10-10--5-5-5-5-5-5-5--2-2-2-2-2-2-2--0-0-0-0-0-0-0--------|

e|---------------------------------------------------------------------------|
B|---------------------------------------------------------------------------|
G|---------------------------------------7-7-7-7-7-7-7--7-7-7-7-7-7-7--------|
D|--10-10-10-10-10-10-10--5-5-5-5-5-5-5--7-7-7-7-7-7-7--7-7-7-7-7-7-7--------|
A|--10-10-10-10-10-10-10--5-5-5-5-5-5-5--5-5-5-5-5-5-5--5-5-5-5-5-5-5--------|
D|--10-10-10-10-10-10-10--5-5-5-5-5-5-5--------------------------------------|

e|---------------------------------------------------------------------------|
B|---------------------------------------------------------------------------|
G|---------------------------------------------------------------------------|
D|--10-10-10-10-10-10-10--5-5-5-5-5-5-5--2-2-2-2-2-2-2--0-0-0-0-0-0-0--------|
A|--10-10-10-10-10-10-10--5-5-5-5-5-5-5--2-2-2-2-2-2-2--0-0-0-0-0-0-0--------|
D|--10-10-10-10-10-10-10--5-5-5-5-5-5-5--2-2-2-2-2-2-2--0-0-0-0-0-0-0--------|

e|---------------------------------------------------------------------------|
B|---------------------------------------------------------------------------|
G|---------------------------------------------------------------------------|
D|--7-7-7-7-7-7-7-7-7-7-7-7---10-10-10-10-10-10-10-10-10---------------------|
A|--7-7-7-7-7-7-7-7-7-7-7-7---10-10-10-10-10-10-10-10-10---------------------|
D|--7-7-7-7-7-7-7-7-7-7-7-7---10-10-10-10-10-10-10-10-10---------------------|


[Repeat Intro]


[Verse 2]

(empty for 8 bars)

Guitar 1 (lead, clean)
e|---------------------------------------------------------------------------|
B|-----0---0-------0---0-------0----0--------0---0---------------------------|
G|---0---0---0---0---0---0---0----0----0---0---0----0------------------------|
D|---------------------------------------------------------------------------|
A|-2----2----2---3---3---3---------------------------------------------------|
D|-------------------------5----5----5---5----5---5--------------------------|

e|---------------------------------------------------------------------------|
B|-----0---0-------0---0-------0----0----------------------------------------|
G|---0---0---0---0---0---0---0----0----0-----2----2--------------------------|
D|-----------------------------------------4----4----4-----------------------|
A|-7---7----7---3---3---3---5---5----5---5----5----5-------------------------|
D|---------------------------------------------------------------------------|


Guitar 2 (Rhythm)
e|---------------------------------------------------------------------------|
B|---------------------------------------------------------------------------|
G|---------------------------------------------------------------------------|
D|--9-9-9-9-9-9-9-9-10-10-10-10-10-10-10-10--5-5-5-5-5-5-5-5-5-5-5-5-5-5-5-5-|
A|--9-9-9-9-9-9-9-9-10-10-10-10-10-10-10-10--5-5-5-5-5-5-5-5-5-5-5-5-5-5-5-5-|
D|--9-9-9-9-9-9-9-9-10-10-10-10-10-10-10-10--5-5-5-5-5-5-5-5-5-5-5-5-5-5-5-5-|
[pm..........................................................................]

e|---------------------------------------------------------------------------|
B|---------------------------------------------------------------------------|
G|---------------------------------------------------------------------------|
D|--2-2-2-2-2-2-2-2-10-10-10-10-10-10-10-10--7-7--7-7-7-7-7-7-7\-------------|
A|--2-2-2-2-2-2-2-2-10-10-10-10-10-10-10-10--7-7--7-7-7-7-7-7-7\-------------|
D|--2-2-2-2-2-2-2-2-10-10-10-10-10-10-10-10--7-7--7-7-7-7-7-7-7\-------------|
[pm........................................]



[Chorus 2]

Guitar 1 (lead)
e|---------------------------------------------------------------------------|
B|---------------------------------------------------------------------------|
G|-12-12-12-12-12-12-12-12-12-12-12-12--11/12-12-12-12-12--11-11-11-11-11-11-|
D|-x--x--x--x--x--x--x--x--x--x--x--x---x-/x--x--x--x--x---x--x--x--x--x--x--|
A|-10-10-10-10-10-10-10-10-10-10-10-10--9-/10-10-10-10-10--9--9--9--9--9--9--|
D|---------------------------------------------------------------------------|

e|---------------------------------------------------------------------------|
B|---------------------------------------------------------------------------|
G|-12-12-12-12-12-12-12-12-12-12-12-12--7-7-7-7--16-16/17-14-14-14--19-17-16-|
D|-x--x--x--x--x--x--x--x--x--x--x--x---x-x-x-x--x--x-/x--x--x--x---x--x--x--|
A|-10-10-10-10-10-10-10-10-10-10-10-10--5-5-5-5--14-14/15-12-12-12--17-15-14-|
D|---------------------------------------------------------------------------|

e|---------------------------------------------------------------------------|
B|---------------------------------------------------------------------------|
G|-12-12-12-12-12-12-12-12-12-12-12-12--11/12-12-12-12-12--11-11-11-11-11-11-|
D|-x--x--x--x--x--x--x--x--x--x--x--x---x-/x--x--x--x--x---x--x--x--x--x--x--|
A|-10-10-10-10-10-10-10-10-10-10-10-10--9-/10-10-10-10-10--9--9--9--9--9--9--|
D|---------------------------------------------------------------------------|

e|---------------------------------------------------------------------------|
B|---------------------------------------------------------------------------|
G|-21-21-21-21-21-21-19-19-19-17-17-17--24-24-24-24-24-24-24-24-24-24-24-24--|
D|-x--x--x--x--x--x--x--x--x--x--x--x---x--x--x--x--x--x--x--x--x--x--x--x---|
A|-19-19-19-19-19-19-17-17-17-15-15-15--22-22-22-22-22-22-22-22-22-22-22-22--|
D|---------------------------------------------------------------------------|

Guitar 2 (Rhythm)
Same as [Chorus 1]


[Bridge]

Guitar 1 (lead)
e|---------------------------------------------------------------------------|
B|---------------------------------------------------------------------------|
G|-------24-(trem. dive down)-------24-(trem. dive down)-----24-(trem. pull)-|
D|---------------------------------------------------------------------------| 
A|---------------------------------------------------------------------------|
D|-----------------------------------------------------------------~---------|

Guitar 2 (Rhythm)
e|---------------------------------------------------------------------------|
B|---------------------------------------------------------------------------|
G|---------------------------------------------------------------------------|
D|-5-------3----2--------5-------3----2--------1--------------------0--------| 
A|-5-------3----2--------5-------3----2--------1--------------------0--------|
D|-5-------3----2--------5-------3----2--------1--------------------0--------|

(empty for 4 bars)

Guitar 1 (lead)
e|---------------------------------------------------------------------------|
B|---------------------------------------------------------------------------|
G|-12-12--12-12-7-12-14--12-12--12-12-7-12-16--12-12--12-12-7-12-14-11--7----|
D|-x--x---x--x--x--x--x--x--x---x--x--x-x--x---x--x---x--x--x-x--x--x---x----|
A|-10-10--10-10-5-10-12--10-10--10-10-5-10-14--10-10--10-10-5-10-12-9---5----|
D|---------------------------------------------------------------------------|

Guitar 2 (Rhythm)
e|---------------------------------------------------------------------------|
B|---------------------------------------------------------------------------|
G|---------------------------------------------------------------------------|
D|-5-------3----2--------5-------3----2--------1--------------------0--------| 
A|-5-------3----2--------5-------3----2--------1--------------------0--------|
D|-5-------3----2--------5-------3----2--------1--------------------0--------|


[Final Chorus]

(Repeat Chorus 2)

[Outro]
Guitar 1 (lead)
e|---------------------------------------------------------------------------|
B|---------------------------------------------------------------------------|
G|-16-16--16\12/16--17-17-17-17-17-17-17--12-12-12-19-19--12-12-12-12-12-12--|
D|-x--x---x--x--x---x--x--x--x--x--x--x---x--x--x--x--x---x--x--x--x--x--x---|
A|-14-14--14\10/14--15-15-15-15-15-15-15--10-10-10-17-17--10-10-10-10-10-10--|
D|---------------------------------------------------------------------------|

e|---------------------------------------------------------------------------|
B|---------------------------------------------------------------------------|
G|-16-16--16\12/16--17-17-17-17-17-17-17--12--14--11-------------------------|
D|-x--x---x--x--x---x--x--x--x--x--x--x---x---x---x--------------------------|
A|-14-14--14\10/14--15-15-15-15-15-15-15--10--12--9--------------------------|
D|---------------------------------------------------------------------------|


Guitar 2 (Rhythm)
e|---------------------------------------------------------------------------|
B|---------------------------------------------------------------------------|
G|---------------------------------------------------------------------------|
D|---9-9-9-9-9-9/10-10-10-10-10-10-10------5-5-5-5-5-5-5--5-5-4-4-4-4--------|
A|---9-9-9-9-9-9/10-10-10-10-10-10-10------5-5-5-5-5-5-5--5-5-4-4-4-4--------|
D|---9-9-9-9-9-9/10-10-10-10-10-10-10------5-5-5-5-5-5-5--5-5-4-4-4-4--------|

e|---------------------------------------------------------------------------|
B|---------------------------------------------------------------------------|
G|---------------------------------------------------------------------------|
D|---2-2-2-2-2---10-10-10-10-10-10---------0--0--0---------------------------| 
A|---2-2-2-2-2---10-10-10-10-10-10---------0--0--0---------------------------|
D|---2-2-2-2-2---10-10-10-10-10-10---------0--0--0---------------------------|

Legend: 
/    = slide up
\    = slide down
~    = virbato
.    = palm mute
b    = bend string
r    = release bend

comments
print report bad tab
I want to post or [tab]
guest
You may want to rate the tab now too:
select rating
Please do not post tabs as comments. Select "correction" instead!