Oops, an error
Loading. Please wait.

Jasey Rae Acoustic Chords

ver1
ver1

Whole song

More versions @911Tabs.com
36,405 views 42 this week
4 commentsread comments
1 2 3 4 5
not so good
x 5
add to favorites launch autoscroll
font size
0
reset
transpose
0
reset
highlight chords
display chords
Autoscroll
+/-
esc
set tempo
stop
Difficulty
novice
WARNING: You are trying to view
                                    content from Ultimate-Guitar.com
                                    in an unauthorized application,
                                    which is prohibited.

                                    Please use an official Ultimate
                                    Guitar Tabs application for iPhone,
                                    iPad or Android to access legitimate
                                    chords, guitar, bass, and drum tabs
                                    from Ultimate-Guitar.com database.

                                    Type "ultimate guitar tabs" in Apple
                                    App Store's or Android Market's
                                    search to find the application.
Technically, you only hit the first chord a few times, but I like the x32 there,
because it helps keep time. No second guitar part listed...I don't feel it's nessisary
to have a second guitar. He performs this a lot by himself. Yeah the tuning is really 
but personally, I think it sounds great like this, and is a lot easier/confortable. I 
it might just be me though.

Anyways, if theres any problem, you can message me.
thestaticscene@gmail.com
or myspace.com/davidpwnsatbass

thanks, goodluck.

Tuning: Altered Drop-D

Intro
e-|-----------------------------------------------------------------|
B-|-----------------------------------------------------------------|
G-|-----------------------------------------------------------------|
C#|--1-x32--6-x32--10-x16--8-x16--6-x32--1-[let it ring]------------|
G#|--1------6------10------8------6------1--------------------------|
D-|--0------5------9-------7------5------0--------------------------|

Verse 1
e-|-----------------------------------------------------------------|
B-|-----------------------------------------------------------------|
G-|-----------------------------------------------------------------|
C#|--1------------1-----------------------10------------------------|
G#|--1------------1-----------------------10------------------------|
D-|--0------------0-----------------------9-------------------------|
        Lights out, I still hear the rain. These images that fill my

e-|-----------------------------------------------------------------|
B-|-----------------------------------------------------------------|
G-|-----------------------------------------------------------------|
C#|--8-----------------------------6------------------------8-------|
G#|--8-----------------------------6------------------------8-------|
D-|--7-----------------------------5------------------------7-------|
     head now keep my fingers from making mistakes, tell my voice

e-|-----------------------------------------------------------------|
B-|-----------------------------------------------------------------|
G-|-----------------------------------------------------------------|
C#|-------------------10-------------------------------8------------|
G#|-------------------10-------------------------------8------------|
D-|-------------------9--------------------------------7------------|
     what it takes to speak up, speak up, and keep my conscience

e-|-----------------------------------------------------------------|
B-|-----------------------------------------------------------------|
G-|-----------------------------------------------------------------|
C#|--6---------------------8-------x--------------------------------|
G#|--6---------------------8-------x--------------------------------|
D-|--5---------------------7-------x--------------------------------|
     clean when I wake.            [some sort of muted rhythm.
                                    just listen to the music]
Chorus
e-|-----------------------------------------------------------------|
B-|-----------------------------------------------------------------|
G-|-----------------------------------------------------------------|
C#|--1-----------------------8---------------------6------8---------|
G#|--1-----------------------8---------------------6------8---------|
D-|--0-----------------------7---------------------5------7---------|
     Don't make this easy, I want you to mean it, Jasey. Say you mean it.

e-|-----------------------------------------------------------------|
B-|-----------------------------------------------------------------|
G-|-----------------------------------------------------------------|
C#|--10-----------------8---------------------6---------------------|
G#|--10-----------------8---------------------6---------------------|
D-|--9------------------7---------------------5---------------------|
     You're dressed to kill, I'm calling you out.

e-|-----------------------------------------------------------------|
B-|-----------------------------------------------------------------|
G-|-----------------------------------------------------------------|
C#|---8------------------------1------------------------------------|
G#|---8------------------------1------------------------------------|
D-|---7------------------------0------------------------------------|
     Don't waste your time on me.

                               --10--|
Verse 2                        --10--|
[Same music, start playing the ---9--| part when you sing the word 'THE common sense...']

Now there's an aching in my back, a stabbing pain that says I lack
The commmon sense and confidence to bring an end to promises
that I make in times of desperate conversation
hoping my night will be better than their's in the end.
Just say when.

Chorus
Repeat the tab listed above, but here's what you will change
as your going into the verse:

e-|-----------------------------------------------------------------|
B-|-----------------------------------------------------------------|
G-|-----------------------------------------------------------------|
C#|---8------------------------10-----------------------------------|
G#|---8------------------------10-----------------------------------|
D-|---7------------------------9------------------------------------|
     Don't waste your time on me.

[So as you will see, you go straight into the bridge, so play that note
at the volume your going to do the bridge.]

Bridge
[This parts pretty simple, just listen to the song, and get louder when
you get to the 'wait outside' line.]

e-|-----------------------------------------------------------------|
B-|-----------------------------------------------------------------|
G-|-----------------------------------------------------------------|
C#|--10---------------------------------------------8---------------|
G#|--10---------------------------------------------8---------------|
D-|--9----------------------------------------------7---------------|
        I've never told a lie, and that makes me a liar.

e-|-----------------------------------------------------------------|
B-|-----------------------------------------------------------------|
G-|-----------------------------------------------------------------|
C#|-----------------------6-------------8---------------------------|
G#|-----------------------6-------------8---------------------------|
D-|-----------------------5-------------7---------------------------|

        I've never made a bet, but we gamble with desire.


[Same notes, listen to the song and figure it out for the rest of the bridge]

I've never lit a match with intent to start a fire.
But recently the flames are getting out of control.
Call me a name, kill me with words.
Forget about me, it's what I deserve.
I was your chance to get out of this town.
But I ditched the car and left you to...
Wait outside.
I hope the air will serve to remind you
that my heart is as cold as the clouds of your breath,
and my words are as timed as the beating in my chest.
In my chest.

David. Guitarist, bassist.
myspace.com/davidpwnsatbass
comments
print report bad tab
4 comments total. Showing first comments.
0 reply
g0tstr1ngs? wrote on September 18 2007, 10:19 pm

why is it Altered - Drop D? why not just drop D? that way instead of 011 its just 000 and instead of 566 its just 555, a lot easier...or am i missing something?

0 reply
kanarf wrote on October 29 2007, 11:26 pm

yeah like stringy said...

0 reply
Bair wrote on August 7 2008, 08:22 pm

where are the chords...i see a tab

I want to post or [tab]
guest
You may want to rate the tab now too:
select rating
Please do not post tabs as comments. Select "correction" instead!