Oops, an error
Loading. Please wait.

Memories That Fade Like Photographs Tab

6,470 views 24 this week
no commentswrite comment
1 2 3 4 5
excellent!
x 4
Autoscroll
+/-
esc
set tempo
stop
Contributor
Difficulty
intermediate
WARNING: You are trying to view
                                    content from Ultimate-Guitar.com
                                    in an unauthorized application,
                                    which is prohibited.

                                    Please use an official Ultimate
                                    Guitar Tabs application for iPhone,
                                    iPad or Android to access legitimate
                                    chords, guitar, bass, and drum tabs
                                    from Ultimate-Guitar.com database.

                                    Type "ultimate guitar tabs" in Apple
                                    App Store's or Android Market's
                                    search to find the application.
----------------------------------------------------------------------------
Memories That Fade Like Photographs - All Time Low
----------------------------------------------------------------------------
Tabbed by: Gerard Matel/gerardiee
Email: gerard_the99ers@yahoo.com
Tuning: Standard 

INTRO:
e|------------------------------------------------------|
B|------------------------------------------------------|
G|--8~---6~---------------------------------------------|
D|--x----x----6~----4~----------------------------------|
A|--6~---4~---6~----4~----------------------------------|
E|------------4~----2~----------------------------------|

e|------------------------------------------------------|
B|------------------------------------------------------|
G|-8~----6~---------5/6~--------------------------------|
D|-x-----x----6~----x-x---------------------------------|
A|-6~--3/4~---6~----3/4~--------------------------------|
E|------------4~-3--------------------------------------|

e|---------------------1~-------------------------------|
B|---------------------1~-------------------------------|
G|---666xx----------------------------------------------|
D|---666xx-(2x)---333------333----444xx------66xx-------|
A|---444xx--------333------111----444xx-(2x)-66xx(4x)---|
E|----------------111------111----222xx------44xx-------|

e|------------------------------------------------------|
B|------------------------------------------------------|
G|---6\5/6------888----6\5/6----------------------------| (2x)
D|---x-x-x------xxx----x-x-x-6--888-8\3--4444--6666-----| 
A|---4\3/4------666----4\3/4-6--888-8\3--4444--6666-----|
E|---------------------------4--666-6\1--2222--4444-----|

VERSE 1:

e|------------------------------------------------------|
B|------------------------------------------------------|
G|--6~--------------------------------------------------|
D|--6~---6x6x6x6x--8x8x8x8x--8\3-444---666--------------|
A|--4~---6x6x6x6x--8x8x8x8x--8\3-444---666--------------|
E|-------4x4x4x4x--6x6x6x6x--6\1-222---444--------------|       

e|------------------------------------------------------|
B|------------------------------------------------------|
G|--6666--6-5---------------------6-5-------------------|
D|--6666------6-(2x)--------8888------6-(2x)------------|
A|--4444--------------------8888------------------------|
E|--------------------------6666------------------------|
p.m ....                    ....

e|------------------------------------------------------|
B|------------------------------------------------------|
G|--------6-5---------------------6-5-------------------|
D|--6666------6-(2x)--------4444------6-(2x)----3x44----|
A|--6666--------------------4444----------------3x44----|
E|--4444--------------------2222----------------1x22----|
p.m ....                    ....

INTRO 2:

e|------------------------------------------------------|
B|------------------------------------------------------|
G|---6\5/6------888----6\5/6----------------------------| 
D|---x-x-x------xxx----x-x-x-6--888-8\3--4444--6666-----| 
A|---4\3/4------666----4\3/4-6--888-8\3--4444--6666-----|
E|---------------------------4--666-6\1--2222--4444-----|

e|------------------------------------------------------|
B|------------------------------------------------------|
G|-10\11/10---111111--13\11\-10/-11---------------------|
D|--x--x--x---x-x-x----x--x---x--x--888-8\3--4444--6666-|
A|--8\-9-/8---9-9-9---11\-9\--8/-9--888-8\3--4444--6666-|
E|----------------------------------666-6\1--2222--4444-|

VERSE 2:

e|------------------------------------------------------|
B|------------------------------------------------------|
G|--6666--6-5---------------------6-5-------------------|
D|--6666------6-(2x)--------8888------6-(2x)------------|
A|--4444--------------------8888------------------------|
E|--------------------------6666------------------------|
p.m ....                    ....

e|------------------------------------------------------|
B|------------------------------------------------------|
G|--------6-5---------------------6-5-------------------|
D|--6666------6-(2x)--------4444------6-(2x)------------|
A|--6666--------------------4444------------------------|
E|--4444--------------------2222------------------------|
p.m ....                    ....

e|------------------------------------------------------|
B|------------------------------------------------------|
G|--6666--6-5---------------------6-5-------------------|
D|--6666------6-(2x)--------8888------6-(2x)------------|
A|--4444--------------------8888------------------------|
E|--------------------------6666------------------------|
p.m ....                    ....

e|------------------------------------------------------|
B|------------------------------------------------------|
G|--------6-5---------------------6-5-------------------|
D|--6666------6-(2x)--------4444------6-(2x)--3---4~----|
A|--6666--------------------4444--------------3---4~----|
E|--4444--------------------2222--------------1---2~----|
p.m ....                    ....

CHORUS:

e|------------------------------------------------------|
B|------------------------------------------------------|
G|--66666666--------------------------------------------| (2x)
D|--66666666-------------33334444-----------------------|
A|--44444444-------------33334444-----------------------|
E|-----------------------11112222-----------------------|

e|------------------------------------------------------|
B|------------------------------------------------------|
G|--66666666--------------------------------------------| (2x)
D|--66666666--------66-88-33-44-------------------------|
A|--44444444--------66-88-33-44-------------------------|
E|------------------44-66-11-22-------------------------|

VERSE 3:

e|------------------------------------------------------|
B|------------------------------------------------------|
G|--6~--------------------6~---------8~-----------------|
D|--6~---------5~---------6~---------8~-----------------|
A|--4~---------3~---------4~---------6~-----------------|
E|------------------------------------------------------|

e|------------------------------------------------------|
B|------------------------------------------------------|
G|--6666--6--6666--6-5------------6---------6-5---------|
D|--6666-----6666------6----8888-----8888-------6-------|
A|--4444-----4444-----------8888-----8888---------------|
E|--------------------------6666-----6666---------------|
p.m ....     ....           ....     ....

e|------------------------------------------------------|
B|------------------------------------------------------|
G|--------6--------6-5-------------6-------6-5----------|
D|--6666-----6666------6-----4444----4444------6--3--4~-|
A|--6666-----6666------------4444----4444---------3--4~-|
E|--4444-----4444------------2222----2222---------1--2~-|
p.m ....     ....            ....    ....

CHORUS:

e|------------------------------------------------------|
B|------------------------------------------------------|
G|--66666666--------------------------------------------| (2x)
D|--66666666-------------33334444-----------------------|
A|--44444444-------------33334444-----------------------|
E|-----------------------11112222-----------------------|

e|------------------------------------------------------|
B|------------------------------------------------------|
G|--66666666--------------------------------------------| (2x)
D|--66666666--------66-88-33-44-------------------------|
A|--44444444--------66-88-33-44-------------------------|
E|------------------44-66-11-22-------------------------|

BRIDGE:

e|------------------------------------------------------|
B|------------------------------------------------------|
G|--66666666--------------------------------------------| 
D|--66666666-------------33334444-----------------------|
A|--44444444-------------33334444-----------------------|
E|-----------------------11112222-----------------------|

e|------------------------------------------------------|
B|------------------------------------------------------|
G|--66666666--------------------------------------------| 
D|--66666666-------------6x6x6x6x-----------------------|
A|--44444444-------------6x6x6x6x-----------------------|
E|-----------------------4x4x4x4x-----------------------|

CHORUS:

e|------------------------------------------------------|
B|------------------------------------------------------|
G|--66666666--------------------------------------------| (2x)
D|--66666666-------------33334444-----------------------|
A|--44444444-------------33334444-----------------------|
E|-----------------------11112222-----------------------|

e|------------------------------------------------------|
B|------------------------------------------------------|
G|--66666666--------------------------------------------| (2x)
D|--66666666--------66-88-33-44-------------------------|
A|--44444444--------66-88-33-44-------------------------|
E|------------------44-66-11-22-------------------------|

OUTRO:


e|------------------------------------------------------|
B|------------------------------------------------------|
G|---6\5/6---------------666----------------------------| 
D|---x-x-x---------------xxx----------------------------| 
A|---4\3/4---------------444----------------------------|
E|------------------------------------------------------|


*********************************************************

| /   slide up
| \   slide down
| h   hammer-on
| p   pull-off
| ~   vibrato
| +   harmonic
| x   Mute note
| b   Bend
| pb  Pre-bend
| br  Bend release
| pbr Pre-bend release
| brb Bend release bend

*********************************************************
comments
print report bad tab
I want to post or [tab]
guest
You may want to rate the tab now too:
select rating
Please do not post tabs as comments. Select "correction" instead!