Oops, an error
Loading. Please wait.

Nothing Personal Tab

8,606 views 51 this week
no commentswrite comment
1 2 3 4 5
excellent!
x 6
add to favorites launch autoscroll
font size
0
reset
Autoscroll
+/-
esc
set tempo
stop
Contributor
Difficulty
intermediate
WARNING: You are trying to view
                                    content from Ultimate-Guitar.com
                                    in an unauthorized application,
                                    which is prohibited.

                                    Please use an official Ultimate
                                    Guitar Tabs application for iPhone,
                                    iPad or Android to access legitimate
                                    chords, guitar, bass, and drum tabs
                                    from Ultimate-Guitar.com database.

                                    Type "ultimate guitar tabs" in Apple
                                    App Store's or Android Market's
                                    search to find the application.
So This is the first album guitar tab for Nothing Personal
this is my first album tab so go easy on okay? :D

1. Weightless
2. Break Your Little Heart
3. Damned If I do ya(Damned If I don't)
4. Lost In Stereo
5. Stella
6. Sick Little Games
7. Hello Brooklyn
8. Walls
9. Too Much
10. Keep the Change, You Filthy Animal
11. A Party Song(The Walk Of Shame)
12. Therapy
-----------------------------------------------------------------------------
1. Weightless

Tuning:

Guitar 1: Drop-D
Guitar 2: Drop-D
Guitar 3: Standard/Drop-D


[VERSE 1]

Guitar 1:

     X                 X                 X                 X
e|------------------------------------------------------------------------|
B|------------------------------------------------------------------------|
G|---0x16--------------2x16--------------------------------0x16-----------| x2
D|---------------------------------------0x16-----------------------------|
A|------------------------------------------------------------------------|
D|------------------------------------------------------------------------|

Guitar 2:

    X X X   X X X     X X X   X X X     X X X   X X X     X X X   X X X
e|------------------------------------------------------------------------|
B|--7-8-7---7-8-7-----7-8-7---7-8-7-----7-8-7---7-8-7-----7-8-7---7-8-7---|
G|------------------------------------------------------------------------| x2
D|------------------------------------------------------------------------|
A|------------------------------------------------------------------------|
D|------------------------------------------------------------------------|


Guitar 1:

    X                 X                 X                 X
e|------------------------------------------------------------------------|
B|------------------------------------------------------------------------|
G|--0x16--------------2x16--------------------------------0x16------------|
D|--------------------------------------0x16------------------------------|
A|------------------------------------------------------------------------|
D|------------------------------------------------------------------------|


Guitar 2:

    X X X   X X X     X X X   X X X     X X X   X X X     X X X   X X X
e-------------------------------------------------------------------------|
B---7-8-7---7-8-7-----7-8-7---7-8-7-----7-8-7---7-8-7-----7-8-7---7-8-7---|
G-------------------------------------------------------------------------|
D-------------------------------------------------------------------------|
A-------------------------------------------------------------------------|
D-------------------------------------------------------------------------|

Guitar 3:

e|------------------------------------------------------------------------|
B|------------------------------------------------------------------------|
G|------------------------------------------------------------------------|
D|--55-----------------------------------00-------------------------------|
A|--55-----------------------------------00-------------------------------|
D|--55-----------------------------------00-------------------------------|

Guitar 1:

    X                 X                 X
e|------------------------------------------------------------------------|
B|------------------------------------------------------------------------|
G|--0x16--------------2x16------------------------------------------------|
D|--------------------------------------0x16------------------------------|
A|------------------------------------------------------------------------|
D|------------------------------------------------------------------------|

Guitar 2:

    X X X   X X X     X X X   X X X
e-------------------------------------------------------------------------|
B---7-8-7---7-8-7-----7-8-7---7-8-7---------------------------------------|
G-------------------------------------------------------------------------|
D-------------------------------------------------------------------------|
A-------------------------------------------------------------------------|
D-------------------------------------------------------------------------|

Guitar 3:

                                         XXXXXXXXXXXXXXXX
e|------------------------------------------------------------------------|
B|------------------------------------------------------------------------|
G|------------------------------------------------------------------------|
D|--5555---------------------------------0000000000000000000000000--------|
A|--5555---------------------------------0000000000000000000000000--------|
D|--5555---------------------------------0000000000000000000000000--------|


[Chorus]

Guitar 1:

e|--------------------------------------------------------------------------|
B|--------------------------------------------------------------------------|
G|--------------------------------------------------------------------------|
D|-5-55-55-5-0-00-0-00-7-77-7-77--7-9-/12-4---------------------------------|
A|-5-55-55-5-0-00-0-00-7-77-7-77--7-9-/12-4---------------------------------|
D|-5-55-55-5-0-00-0-00-7-77-7-77--7-9-/12-4---------------------------------|

Guitar 2:

e|------------------------------------------------------------------------|
B|------------------------------------------------------------------------|
G|-7-77-777-/-111111-111111-\-999-999-9-/-11-/14-\11----------------------|
D|------------------------------------------------------------------------|
A|-5-55-555-/-9-9-9--9-9-9--\-777-777-7-/-9--/12-\9-----------------------|
D|------------------------------------------------------------------------|

Guitar 1:

e|------------------------------------------------------------------------|
B|------------------------------------------------------------------------|
G|------------------------------------------------------------------------|
D|-5-55-55-5-0-00-0-00-7-77-7-77-7-77-7-77--------------------------------|
A|-5-55-55-5-0-00-0-00-7-77-7-77-7-77-7-77--------------------------------|
D|-5-55-55-5-0-00-0-00-7-77-7-77-7-77-7-77--------------------------------|

Guitar 2:

e|------------------------------------------------------------------------|
B|------------------------------------------------------------------------|
G|-7-77-777--777-777--\-9999999999999999----------------------------------|
D|------------------------------------------------------------------------|
A|-5-55-555--555-555--\-7777777777777777----------------------------------|
D|------------------------------------------------------------------------|

Guitar 1:

e|------------------------------------------------------------------------|
B|------------------------------------------------------------------------|
G|-7-77--7-77--6-66--6-66--4-44--4-44-------------------------------------|
D|-7-77--7-77--6-66--6-66--4-44--4-44-------------------------------------|
A|-5-55--5-55--4-44--4-44--2-22--2-22-------------------------------------|
D|------------------------------------------------------------------------|

Guitar 2:

e|------------------------------------------------------------------------|
B|------------------------------------------------------------------------|
G|-1919191919191919-/-1818181818181818-/-1616161616161616-/---------------|
D|------------------------------------------------------------------------|
A|-1717171717171717-/-1616161616161616-/-1414141414141414-/---------------|
D|------------------------------------------------------------------------|

Guitar 3:

e|------------------------------------------------------------------------|
B|------------------------------------------------------------------------|
G|-----19---------------18-------14--------16-------12--------------------|
D|------------------------------------------------------------------------|
A|------------------------------------------------------------------------|
D|------------------------------------------------------------------------|

| Cause I've been going crazy. I don't wanna waste another minute here.

Guitar 1:

                                                  XXX     X   XXX
e|--------------------------------------------|---------------------------|
B|--------------------------------------------|---------------------------|
G|--------------------------------------------|---------------------------|
D|--0-00--0-00---5-55-5-55--7-\---------------|-0-000-0---0-0-000-0-------|
A|--0-00--0-00---5-55-5-55--7-\---------------|-0-000-0---0-0-000-0-------|
D|--0-00--0-00---5-55-5-55--7-\---------------|-0-000-0---0-0-000-0-------|

Guitar 2:

e|--------------------------------------------|---------------------------|
B|--------------------------------------------|-19-15-19-15-191915-19-15--|
G|-/-1414141414141414-/-1111111111111111-/-9--|---------------------------|x2
D|--------------------------------------------|---------------------------|
A|-/-1212121212121212-/-9-9-9-9-9-9-9-9--/-7--|---------------------------|
D|--------------------------------------------|---------------------------|

Guitar 3:

e|--------------------------------------------|---------------------------|
B|--------------------------------------------|---------------------------|
G|---14-------11------------------------------|---------------------------|
D|--------------------------------------------|--0000000000000000---------|
A|--------------------------------------------|---------------------------|
D|--------------------------------------------|---------------------------|


[Verse 2]

Guitar 2:

         X
e|------------------------------------------------------------------------|
B|------------------------------------------------------------------------|
G|-6/7-7-77--7-7h9-6-7p6-7p6-6-6-6-6h9---7-7-77-7-7-77h9------------------|x2
D|---------9--------------------------------9-------------5-5--55--5-5-55-|
A|------------------------------------------------------------------------|
D|------------------------------------------------------------------------|


Guitar 1:

   XXXXXXXXXXXXXXXX XXXXXXXXXXXXXXXX XXXXXXXXXXXXXXXX
e|------------------------------------------------------------------------|
B|------------------------------------------------------------------------|
G|------------------------------------------------------------------------|
D|-5555555555555555-7777777777777777-000000000000000000000000-------------|
A|-5555555555555555-7777777777777777-000000000000000000000000-------------|
D|-5555555555555555-7777777777777777-000000000000000000000000-------------|

Guitar 2:

e|------------------------------------------------------------------------|
B|-------------5-------------5-------------5------------------------------|
G|--7-7-7-7-7-7--6-6-6-6-6-6---7-7-7-7-7-7---7-7-7-7-7--------------------|
D|------------------------------------------------------------------------|
A|------------------------------------------------------------------------|
D|------------------------------------------------------------------------|


Repeat  [Chorus]


[Chorus Extended]


Guitar 1:

     XXX     X   XX
e|---------------------------|
B|---------------------------|
G|---------------------------|
D|-0-000-0---0-0-00-0--------|
A|-0-000-0---0-0-00-0--------|
D|-0-000-0---0-0-00-0--------|

Guitar 2:

e|---------------------------|
B|-19-15-19-15-191915-19-15--|
G|---------------------------|x2
D|---------------------------|
A|---------------------------|
D|---------------------------|

Guitar 3:

e|---------------------------|
B|---------------------------|
G|---------------------------|
D|--0000000000000000---------|
A|---------------------------|
D|---------------------------|

[Bridge 2]


Guitar 1:

                                         XXX      X   XXX
e|------------------------------------------------------------------------|
B|------------------------------------------------------------------------|
G|------------------------------------------------------------------------|
D|-2222222222222222-5555555555555555---0-000-0----0-0-000-0---------------|
A|-2222222222222222-5555555555555555---0-000-0----0-0-000-0---------------|
D|-2222222222222222-5555555555555555---0-000-0----0-0-000-0---------------|

Guitar 2:

e|------------------------------------------------------------------------|
B|------------------------------------77-88-10-888-7--77-88-10-7----------|
G|---7--7--7--7--7---7--7--7--7--7------------------7---------------------|
D|-45-45-45-45-45--54-54-54-54-54-----------------------------------------|
A|------------------------------------------------------------------------|
D|------------------------------------------------------------------------|

Guitar 1:

                                                       XX XX XX XX XXXX
e|------------------------------------------------------------------------|
B|------------------------------------------------------------------------|
G|------------------------------------------------------------------------|
D|-2222222222222222-5555555555555555---7-7-7-7-7-7-7-7-77-77-77-77-7777---|
A|-2222222222222222-5555555555555555---7-7-7-7-7-7-7-7-77-77-77-77-7777---|
D|-2222222222222222-5555555555555555---7-7-7-7-7-7-7-7-77-77-77-77-7777---|

Guitar 2:

e|------------------------------------------------------------------------|
B|------------------------------------77-88-10-888-7--77-88-10-7----------|
G|---7--7--7--7--7---7--7--7--7--7------------------7---------------------|
D|-45-45-45-45-45--54-54-54-54-54-----------------------------------------|
A|------------------------------------------------------------------------|
D|------------------------------------------------------------------------|

Guitar 1:

e|---------------------------|
B|---------------------------|
G|---------------------------|
D|-0---h2-/--5---0-----------|
A|-0---h2-/--5---0-----------|
D|-0---h2-/--5---0-----------|


Repeat  [Chorus]


Guitar 1:

     XXX     X   X
e|---------------------------|
B|---------------------------|
G|---------------------------|
D|-0-000-0---0-0-00----------|
A|-0-000-0---0-0-00----------|
D|-0-000-0---0-0-00----------|

Guitar 2:

e|-----------------------------------|
B|-19-15-19-15-191915-19-15-19-15-19-|
G|-----------------------------------|
D|-----------------------------------|
A|-----------------------------------|
D|-----------------------------------|

Guitar 3:

e|---------------------------|
B|---------------------------|
G|---------------------------|
D|--0000000000000------------|
A|---------------------------|
D|---------------------------|

[end]

-----------------------------------------------------------------------------
2. Break Your Little Heart
Tunings:

Guitar 1: Drop-D
Guitar 2: Drop-D
Guitar 3: Standard/Drop-D

[Intro/Bridge]

Guitar 1:

e|------------------------------------------------------------------------|
B|------------------------------------------------------------------------|
G|----------------------------------------------6-------------------------|
D|-4--4-4-------6--6-6-------8--8-8-------8--8--6-6-----------------------|
A|-4--4-4-------6--6-6-------8--8-8-------8--8--4-6-----------------------|
D|-4--4-4-------6--6-6-------8--8-8-------8--8----6-----------------------|

Guitar 2:

e|------------------------------------------------------------------------|
B|------------------------------------------------------------------------|
G|------------------------------------------------------------------------|
D|--6-4-3--------6-4-3--------6-4-3---------------------------------------|
A|---------------------6-4----------------------8-6-----------------------|
D|------------------------------------------------------------------------|

Guitar 1:

e|------------------------------------------------------------------------|
B|------------------------------------------------------------------------|
G|----------------------------------------------6-------------------------|
D|-4--4-4-------6--6-6-------8--8-8-------8--8--6-6-----------------------|
A|-4--4-4-------6--6-6-------8--8-8-------8--8--4-6-----------------------|
D|-4--4-4-------6--6-6-------8--8-8-------8--8----6-----------------------|

Guitar 2:

e|------------------------------------------------------------------------|
B|------------------------------------------------------------------------|
G|------------------------------------------------------------------------|
D|--6-4-3--------6-4-3--------6-4-3-------------3-------------------------|
A|---------------------6-4------------------------6-----------------------|
D|------------------------------------------------------------------------|

[Verse 1]

Guitar 1:

                                     XXXXXX XXXXXXXX XXXXXXXXXXXX
e|------------------------------------------------------------------------|
B|------------------------------------------------------------------------|
G|--------------6-------------6-----------------------------------6-------|
D|-4------------6-6-8---------6-6-4--444444-66666666-888888888888-6--6-4--|
A|-4------------4-6-8---------4-6-4--444444-66666666-888888888888-4--6-4--|
D|-4--------------6-8-----------6-4--444444-66666666-888888888888----6-4--|

Guitar 2:

e|------------------------------------------------------------------------|
B|------------------------------------------------------------------------|
G|-66666666666666666666666666666666-------------------------------10-8-6--|
D|------------------------------------------------------------------------|
A|----------------------------------------------------------------8--6-4--|
D|------------------------------------------------------------------------|


[Refrain]
.

Guitar 1:

                                     XXXXXX XXXXXXXX XXXXXXXXXXXX
e|------------------------------------------------------------------------|
B|------------------------------------------------------------------------|
G|--------------6-------------6-------------------------------------------|
D|--------------6-6-8---------6-6-4--444444-66666666-4444444444444--------|
A|--------------4-6-8---------4-6-4--444444-66666666-4444444444444--------|
D|----------------6-8-----------6-4--444444-66666666-4444444444444--------|

Guitar 2:

e|------------------------------------------------------------------------|
B|------------------------------------------------------------------------|
G|-6666666666666666666666666666666666666666555555556666666666666----------|
D|------------------------------------------------------------------------|
A|------------------------------------------------------------------------|
D|------------------------------------------------------------------------|


[Chorus]


Guitar 1:

e|------------------------------------------------------------------------|
B|------------------------------------------------------------------------|
G|-66666666---------------------------------------------------------------|
D|-66666666-66666666-88888888-44444444--88888888-66666666-444444444-------|
A|-44444444-66666666-88888888-44444444--88888888-66666666-444444444-------|
D|----------66666666-88888888-44444444--88888888-66666666-444444444-------|

Guitar 2:

e|------------------------------------------------------------------------|
B|-14x32--11x32--14x16--13x16--14x16--------------------------------------|
G|------------------------------------------------------------------------|
D|------------------------------------------------------------------------|
A|------------------------------------------------------------------------|
D|------------------------------------------------------------------------|

Guitar 1:

e|------------------------------------------------------------------------|
B|------------------------------------------------------------------------|
G|----------------------------------------------6-------------------------|
D|-4--4-4-------6--6-6-------8--8-8-------8--8--6-6-----------------------|
A|-4--4-4-------6--6-6-------8--8-8-------8--8--4-6-----------------------|
D|-4--4-4-------6--6-6-------8--8-8-------8--8----6-----------------------|

Guitar 2:

e|------------------------------------------------------------------------|
B|------------------------------------------------------------------------|
G|------------------------------------------------------------------------|
D|--6-4-3--------6-4-3--------6-4-3---------------------------------------|
A|---------------------6-4----------------------8-6-----------------------|
D|------------------------------------------------------------------------|

Guitar 1:

e|------------------------------------------------------------------------|
B|------------------------------------------------------------------------|
G|----------------------------------------------6-------------------------|
D|-4--4-4-------6--6-6-------8--8-8-------8--8--6-6-----------------------|
A|-4--4-4-------6--6-6-------8--8-8-------8--8--4-6-----------------------|
D|-4--4-4-------6--6-6-------8--8-8-------8--8----6-----------------------|

Guitar 2:

e|------------------------------------------------------------------------|
B|------------------------------------------------------------------------|
G|------------------------------------------------------------------------|
D|--6-4-3--------6-4-3--------6-4-3-------------3-------------------------|
A|---------------------6-4------------------------6-----------------------|
D|------------------------------------------------------------------------|

[Verse 2]


Guitar 1:

                            XXXXXX                   XXXXXXXX
e|------------------------------------------------------------------------|
B|------------------------------------------------------------------------|
G|--------6----------6----------------------------------------------------|
D|-4------6-6-8------6-6-4--444444-------------------66666666-------------|
A|-4------4-6-8------4-6-4--444444-------------------66666666-------------|
D|-4--------6-8--------6-4--444444-------------------66666666-------------|

Guitar 2:


e|------------------------------------------------------------------------|
B|------------------------------------------------------------------------|
G|-666666666666666666666666-----------------------------------------------|
D|------------------------------------------------------------------------|
A|------------------------------------------------------------------------|
D|------------------------------------------------------------------------|

Guitar 3:

e|------------------------------------16----------------------16----------|
B|---------------------------13-14-13----14-13-------13-14-13----14-13-14-|
G|---------------------------------------------13-------------------------|
D|------------------------------------------------------------------------|
A|------------------------------------------------------------------------|
D|------------------------------------------------------------------------|

Guitar 1:

   XXXXXXXXXXXX
e|------------------------------------------------------------------------|
B|------------------------------------------------------------------------|
G|------------------------6-----------------------------------------------|
D|-888888888888-----------6--6-8------------------------------------------|
A|-888888888888-----------4--6-8------------------------------------------|
D|-888888888888--------------6-8------------------------------------------|

Guitar 3:

e|------------------------------------13-16-------------------------------|
B|-13-14-13-14-14-13-14---13-14-13-16-------------------------------------|
G|------------------------------------------------------------------------|
D|------------------------------------------------------------------------|
A|------------------------------------------------------------------------|
D|------------------------------------------------------------------------|


[Refrain 2]


Guitar 1:

                            XXXXXX                   XXXXXXXX
e|------------------------------------------------------------------------|
B|------------------------------------------------------------------------|
G|---------6---------6----------------------------------------------------|
D|---------6-6-8-----6-6-4--444444-------------------66666666-------------|
A|---------4-6-8-----4-6-4--444444-------------------66666666-------------|
D|-----------6-8-------6-4--444444-------------------66666666-------------|

Guitar 2:

e|------------------------------------------------------------------------|
B|------------------------------------------------------------------------|
G|--------------------------6666666666666666---------5555555555555555-----|
D|------------------------------------------------------------------------|
A|------------------------------------------------------------------------|
D|------------------------------------------------------------------------|

Guitar 3:

e|------------------------------------------------------------16----------|
B|---------------------------13-14-13-14-14-13-------13-14-13----14-13-14-|
G|---------------------------------------------13-------------------------|
D|------------------------------------------------------------------------|
A|------------------------------------------------------------------------|
D|------------------------------------------------------------------------|

Guitar 1:

   XXXXXXXXXXXX
e|------------------------------------------------------------------------|
B|------------------------------------------------------------------------|
G|------------------------------------------------------------------------|
D|-4444444444444----------------------------------------------------------|
A|-4444444444444----------------------------------------------------------|
D|-4444444444444----------------------------------------------------------|

Guitar 2:

e|------------------------------------------------------------------------|
B|------------------------------------------------------------------------|
G|-6666666666666666-------------------------------------------------------|
D|------------------------------------------------------------------------|
A|------------------------------------------------------------------------|
D|------------------------------------------------------------------------|

Guitar 3:

e|------------------------------------------------------------------------|
B|-13-14-13-14-14-13-14------13-14-13~------------------------------------|
G|----------------------13------------------------------------------------|
D|------------------------------------------------------------------------|
A|------------------------------------------------------------------------|
D|------------------------------------------------------------------------|


[Chorus 2]

Guitar 1:

e|------------------------------------------------------------------------|
B|------------------------------------------------------------------------|
G|-66666666---------------------------------------------------------------|
D|-66666666-66666666-88888888-44444444-88888888-66666666-44444444444444444|
A|-44444444-66666666-88888888-44444444-88888888-66666666-44444444444444444|
D|----------66666666-88888888-44444444-88888888-66666666-44444444444444444|

Guitar 2:

e|------------------------------------------------------------------------|
B|-14x32--11x32--14x16--13x16--14x16--------------------------------------|
G|------------------------------------------------------------------------|
D|------------------------------------------------------------------------|
A|------------------------------------------------------------------------|
D|------------------------------------------------------------------------|


Guitar 1:

e|------------------------------------------------------------------------|
B|------------------------------------------------------------------------|
G|-66666666---------------------------------------------------------------|
D|-66666666-66666666-88888888-44444444--88888888-66666666-444444444-------|
A|-44444444-66666666-88888888-44444444--88888888-66666666-444444444-------|
D|----------66666666-88888888-44444444--88888888-66666666-444444444-------|

Guitar 2:

e|------------------------------------------------------------------------|
B|-14x32--11x32--14x16--13x16--14x16--------------------------------------|
G|------------------------------------------------------------------------|
D|------------------------------------------------------------------------|
A|------------------------------------------------------------------------|
D|------------------------------------------------------------------------|


[Bridge]


Guitar 1:

e|------------------------------------------------------------------------|
B|------------------------------------------------------------------------|
G|-------------------66666666----------------------------6-6--------------|
D|-88888888-44444444-66666666-66666666-88888888-44444444-6-6-6------------|
A|-88888888-44444444-44444444-66666666-88888888-44444444-4-4-6------------|
D|-88888888-44444444----------66666666-88888888-44444444-----6------------|


Guitar 2:

e|-------16-------16------------------------------------------------------|
B|-13-14----13-14----13-14-13-14-13-14-14-14-13---------------------------|
G|----------------------------------------------13------------------------|
D|------------------------------------------------------------------------|
A|------------------------------------------------------------------------|
D|------------------------------------------------------------------------|

e|-------16-------16------------------------------------------------------|
B|-13-14----13-14----13-14-13-14-13-14-14-14-13---------------------------|x3
G|----------------------------------------------13------------------------|
D|------------------------------------------------------------------------|
A|------------------------------------------------------------------------|
D|------------------------------------------------------------------------|


[Solo]

Guitar 1:

e|--------------------------------------------------------------------------|
B|--------------------------------------------------------------------------|
G|------------------------------------------------13-13-13------------------|
D|-11-11--11-11-----10-10--10-----8-10-11------------------10-10-10-11-11-11|
A|--------------11------------11----------11-9-8----------------------------|
D|--------------------------------------------------------------------------|

Guitar 2:

e|------------------------------------------------------------------------|
B|------------------------------------------------------------------------|
G|-66666666---------------------------------------------------------------|
D|-66666666-66666666-88888888-44444444-88888888---------------------------|
A|-44444444-66666666-88888888-44444444-88888888---------------------------|
D|----------66666666-88888888-44444444-88888888---------------------------|

Guitar 1:

e|--------------------------------------------------------------------------|
B|--------------------------------------------------------------------------|
G|-13-13-13-------------------13-------13-------13-------13-15-17-18--------|
D|----------10-10-10-11-11-11----10-11----10-11----10-11--------------------|
A|--------------------------------------------------------------------------|
D|--------------------------------------------------------------------------|

Guitar 2:

e|------------------------------------------------------------------------|
B|------------------------------------------------------------------------|
G|------------------------------------------------------------------------|
D|-66666666-44444444------------------------------------------------------|
A|-66666666-44444444------------------------------------------------------|
D|-66666666-44444444------------------------------------------------------|


[Chorus 3]

Guitar 1:

e|------------------------------------------------------------------------|
B|------------------------------------------------------------------------|
G|------------------------------------------------------------------------|
D|----------66666666-88888888-44444444-88888888-66666666-44444444444444444|
A|----------66666666-88888888-44444444-88888888-66666666-44444444444444444|
D|----------66666666-88888888-44444444-88888888-66666666-44444444444444444|

Guitar 2:

e|------------------------------------------------------------------------|
B|----------14x16--11x32--14x16--13x16--14x16-----------------------------|
G|------------------------------------------------------------------------|
D|------------------------------------------------------------------------|
A|------------------------------------------------------------------------|
D|------------------------------------------------------------------------|


Guitar 1:

e|------------------------------------------------------------------------|
B|------------------------------------------------------------------------|
G|-66666666---------------------------------------------------------------|
D|-66666666-66666666-88888888-44444444--88888888-66666666-444444444-------|
A|-44444444-66666666-88888888-44444444--88888888-66666666-444444444-------|
D|----------66666666-88888888-44444444--88888888-66666666-444444444-------|

Guitar 2:

e|------------------------------------------------------------------------|
B|-14x32--11x32--14x16--13x16--14x16--------------------------------------|
G|------------------------------------------------------------------------|
D|------------------------------------------------------------------------|
A|------------------------------------------------------------------------|
D|------------------------------------------------------------------------|

[end]
-----------------------------------------------------------------------------
3. Damned If I do ya (Damned If I don't)

Tunings:

Guitar 1: Drop-D
Guitar 2: Standard/Drop-D


[Intro/Bridge]

Guitar 1:

e|------------------------------------------------------------------------|
B|------------------------------------------------------------------------|
G|----22222-44-/-66-\-44-----22222--66-\-44---4---------------------------|
D|-22-22222---------------22-22222----------------------------------------|
A|-22-00000-22-/-44-\-22--22-00000--44-\-22---2---------------------------|
D|-22---------------------22----------------------------------------------|

Guitar 2:

e|------------------------------------------------------------------------|
B|-17-17-17-17-17-17-17-17-17-17-17-17-17-17-17-17------------------------|
G|------------------------------------------------------------------------|
D|------------------------------------------------------------------------|
A|------------------------------------------------------------------------|
D|------------------------------------------------------------------------|

Guitar 1:

e|------------------------------------------------------------------------|
B|------------------------------------------------------------------------|
G|----22222-44-/-66-\-44-----22222--66-\-44---4------------------22-------|
D|-22-22222---------------22-22222-------------------------------22-------|
A|-22-00000-22-/-44-\-22--22-00000--44-\-22---2------------------00-------|
D|-22---------------------22----------------------------------------------|

Guitar 2:

e|------------------------------------------------------------------------|
B|-------------------------------------------19---------------------------|
G|-21-16-21-16-21-16-21-16-21-16-21-16-21-16----16------------------------|x2
D|------------------------------------------------------------------------|
A|------------------------------------------------------------------------|
D|------------------------------------------------------------------------|

**NOTE** Guitar 2 can alternatively be played (thanks JessicaGonzo):

e|------------------------------------------------------------------|
B|--17--17--17--17--17--17--17--19----------------------------------|
G|----16--16--16--16--16--16--16--16--------------------------------|x2
D|------------------------------------------------------------------|
A|------------------------------------------------------------------|
D|------------------------------------------------------------------|

** END NOTE **
[Verse 1]


Guitar 2:

   XXX XXXX XXXX XXXX X XXX XXXX XXXXXXXX X XXX XXXX XXXX XXXX
e|------------------------------------------------------------------------|
B|------------------------------------------------------------------------|
G|------------------------------------------------------------------------|
D|-777-6666-4444-6666---777-6666-44444444---777-6666-4444-6666------------|
A|-777-7777-2222-4444-0-777-7777-22222222-0-777-7777-2222-7777------------|
D|------------------------------------------------------------------------|

Guitar 2:

   XXXXXXXXX XXX
e|------------------------------------------------------------------------|
B|------------------------------------------------------------------------|
G|--------------444-------------------------------------------------------|
D|-777777777-111111-------------------------------------------------------|
A|-555555555-222222-------------------------------------------------------|
D|------------------------------------------------------------------------|

Guitar 1:

   XXX XXXX XXXX XXX      XXX XXXX XXXX XXX      XXX XXXX XXXX XXX
e|------------------------------------------------------------------------|
B|------------------------------------------------------------------------|
G|-222------4444-6666-\-4-222------4444-6666-\-4-222------4444-6666-\-4---|
D|-222-2222-4444-6666-\-4-222-2222-4444-6666-\-4-222-2222-4444-6666-\-4---|
A|-000-2222-2222-4444-\-2-000-2222-2222-4444-\-2-000-2222-2222-4444-\-2---|
D|-----2222-------------------2222-------------------2222-----------------|

Guitar 1:

   XXXX
e|------------------------------------------------------------------------|
B|------------------------------------------------------------------------|
G|-77777777--4444444------------------------------------------------------|
D|-77777777--4444444------------------------------------------------------|
A|-55555555--2222222------------------------------------------------------|
D|------------------------------------------------------------------------|


[Chorus]


Guitar 1:

e|------------------------------------------------------------------------|
B|------------------------------------------------------------------------|
G|----------22222222-66666666-44444444---66666666-22222222-22-------------|
D|-22222222-22222222-66666666-44444444---66666666-22222222-22-------------|
A|-22222222-00000000-44444444-22222222---44444444-00000000-00-------------|
D|-22222222---------------------------------------------------------------|

Guitar 2:

e|----------------------------------------------------|-------------------|
B|-------------------------------------------19-------|-------------------|
G|-21-16-21-16-21-16-21-16-21-16-21-16-21-16----16----|x3-----21----------|
D|----------------------------------------------------|-------------------|
A|----------------------------------------------------|-------------------|
D|----------------------------------------------------|-------------------|


[Bridge]

Guitar 1:

e|------------------------------------------------------------------------|
B|------------------------------------------------------------------------|
G|----22222-44-/-66-\-44-----22222--66-\-44---4---------------------------|
D|-22-22222---------------22-22222----------------------------------------|
A|-22-00000-22-/-44-\-22--22-00000--44-\-22---2---------------------------|
D|-22---------------------22----------------------------------------------|

Guitar 2:

e|------------------------------------------------------------------------|
B|-------------------------------------------19---------------------------|
G|-21-16-21-16-21-16-21-16-21-16-21-16-21-16----16------------------------|x2
D|------------------------------------------------------------------------|
A|------------------------------------------------------------------------|
D|------------------------------------------------------------------------|


[Verse 2]

Guitar 1:

   XXX XXXX XXXX XXX      XXX XXXX XXXXXXXX       XXX XXXX XXXX XXX
e|---------------------------------------------------------------------------|
B|---------------------------------------------------------------------------|
G|-222------4444-6666-\-4-222------44444444-6-\-4-222------4444-6666-\-4-----|
D|-222-2222-4444-6666-\-4-222-2222-44444444-6-\-4-222-2222-4444-6666-\-4-----|
A|-000-2222-2222-4444-\-2-000-2222-22222222-4-\-2-000-2222-2222-4444-\-2-----|
D|-----2222-------------------2222--------------------2222-------------------|

Guitar 1:

   XXXX
e|------------------------------------------------------------------------|
B|------------------------------------------------------------------------|
G|-77777777--44444444-----------------------------------------------------|
D|-77777777--44444444-----------------------------------------------------|
A|-55555555--22222222-----------------------------------------------------|
D|------------------------------------------------------------------------|

Guitar 1:

   XXX XXXX XXXX XXX      XXX XXXX XXXX XXX      XXX XXXX XXXX XXX
e|------------------------------------------------------------------------|
B|------------------------------------------------------------------------|
G|-222------4444-6666-\-4-222------4444-6666-\-4-222------4444-6666-\-4---|
D|-222-2222-4444-6666-\-4-222-2222-4444-6666-\-4-222-2222-4444-6666-\-4---|
A|-000-2222-2222-4444-\-2-000-2222-2222-4444-\-2-000-2222-2222-4444-\-2---|
D|-----2222-------------------2222-------------------2222-----------------|

Guitar 2:

e|-----------------------------|------------------------------------------|
B|-----------------------------|------------------------------------------|
G|-14--16-13-16-11-16-13-16----|x3----------------------------------------|
D|---14------------------------|------------------------------------------|
A|-----------------------------|------------------------------------------|
D|-----------------------------|------------------------------------------|

Guitar 1:

   XXXX
e|------------------------------------------------------------------------|
B|------------------------------------------------------------------------|
G|-77777777--44444444-----------------------------------------------------|
D|-77777777--44444444-----------------------------------------------------|
A|-55555555--22222222-----------------------------------------------------|
D|------------------------------------------------------------------------|

Guitar 2:

e|------------------------------------------------------------------------|
B|------------------------------------------------------------------------|
G|-14--16-13-16-11-16-13-16-----------------------------------------------|
D|---14-------------------------------------------------------------------|
A|------------------------------------------------------------------------|
D|------------------------------------------------------------------------|


Repeat  [Chorus]


[Bridge 2]

Guitar 1:

e|------------------------------------------------------------------------|
B|------------------------------------------------------------------------|
G|-2-22-2-22-4-44-6-66-2-22-2-22-4-44-6-66-2-22-2-22-9-99-8-88-222222222--|
D|-2-22-2-22-4-44-6-66-2-22-2-22-4-44-6-66-2-22-2-22-9-99-8-88-222222222--|
A|-0-00-0-00-2-22-4-44-0-00-0-00-2-22-4-44-0-00-0-00-7-77-6-66-000000000--|
D|------------------------------------------------------------------------|

Guitar 2:

e|------------------------------------------------------------------------|
B|------------------------------------------------------------------------|
G|-9-99-9-99-11-1111-13-1313--9-99-9-99-13-1313-11-1111-------------------|
D|------------------------------------------------------------------------|
A|-7-77-7-77-9--9-9--11-1111--7-77-7-77-11-1111-9--9-9--------------------|
D|------------------------------------------------------------------------|

Guitar 2:

e|------------------------------------------------------------------------|
B|------------------------------------------------------------------------|
G|-9-99-9-99-11-1111-13-1313---9------------------------------------------|
D|------------------------------------------------------------------------|
A|-7-77-7-77-9--9-9--11-1111---7------------------------------------------|
D|------------------------------------------------------------------------|

Guitar 2:

e|------------------------------------------------------------------------|
B|------------------------------------------------------------------------|
G|--9--------9------------------------------------------------------------|
D|----9-7------9-7--------------------------------------------------------|
A|--------7--------7------------------------------------------------------|
D|------------------------------------------------------------------------|

[Chorus]

Guitar 1:

e|------------------------------------------------------------------------|
B|------------------------------------------------------------------------|
G|----------22222222-66666666-44444444---66666666-222222222222222-4444444-|
D|-22222222-22222222-66666666-44444444---66666666-222222222222222-4444444-|
A|-22222222-00000000-44444444-22222222---44444444-000000000000000-2222222-|
D|-22222222---------------------------------------------------------------|

Guitar 2:

e|------------------------------------------------------------------------|
B|-------------------------------------------19---------------------------|
G|-21-16-21-16-21-16-21-16-21-16-21-16-21-16----16------------------------|x4
D|------------------------------------------------------------------------|
A|------------------------------------------------------------------------|
D|------------------------------------------------------------------------|


e|------------------------------------------------------------------------|
B|------------------------------------------------------------------------|
G|----------22222222-66666666-44444444-5*-66666666-22222222-22----22------|
D|-22222222-22222222-66666666-44444444----66666666-22222222-22----22------|
A|-22222222-00000000-44444444-22222222----44444444-00000000-00----00------|
D|-22222222---------------------------------------------------------------|

Guitar 2:

(Note: do not play 19th fret second time, instead it's the harmonic)

e|----------------------------------------------------|-------------------|
B|-------------------------------------------19-------|-------------------|
G|-21-16-21-16-21-16-21-16-21-16-21-16-21-16----16----|x3-----21----------|
D|----------------------------------------------------|-------------------|
A|----------------------------------------------------|-------------------|
D|----------------------------------------------------|-------------------|


[Outro]

Guitar 1:

e|------------------------------------------------------------------------|
B|------------------------------------------------------------------------|
G|----22222-44-/-66-\-44-----22222--66-\-44-------------------------------|
D|-22-22222---------------22-22222------------------------------2-2-------|
A|-22-00000-22-/-44-\-22--22-00000--44-\-22---------------------2-2-------|
D|-22---------------------22------------------------------------2-2-------|

Guitar 2:

e|------------------------------------------------------------------------|
B|-------------------------------------------19---------------------------|
G|-21-16-21-16-21-16-21-16-21-16-21-16-21-16----16------------------------|x2
D|------------------------------------------------------------------------|
A|------------------------------------------------------------------------|
D|------------------------------------------------------------------------|

[end]
-----------------------------------------------------------------------------
4. Lost In Stereo

Intro - 00:00
E|-----------------------------|
B|-----------------------------| Lead
G|----15-14----------15-14-----|
D|-17-------15-17-17-------15~-| x2
A|-----------------------------|
D|-----------------------------|

E|-----------------------------|
B|-----------------------------| Rhythm
G|--------3--------------------|
D|-5------3-(x8)-3------1------| x2
A|-5-(x8)-1------3-(x8)-1-(x8)-|
D|-5-------------3------1------|

Verse - 00:15
E|--------------------|---------------------------------|
B|--------------------|---------------------------------|
G|-3-3--2-2-----------|-3-3-----------------------------|
D|-3-3--3-3--1-1--1-1-|-3-3-----------------------------|
A|-1-1--0-0--1-1--1-1-|-1-1-1-1-1-1-1-1-1-1-1-1-1-1-1-1-|
D|-----------1-1--1-1-|---------------------------------|
Pm                          ............................

E|-----------------------------------------------------------------|
B|-----------------------------------------------------------------|
G|-2-2-------------------------------------------------------------|
D|-3-3-----------------------------1-1-----------------------------|
A|-0-0-0-0-0-0-0-0-0-0-0-0-0-0-0-0-1-1-----------------------------|
D|---------------------------------1-1-1-1-1-1-1-1-1-1-1-1-1-1-1-1-|
Pm     ...........................     ............................

E|-------------------|
B|-------------------|
G|-------------------|
D|-------------------|
A|-----------------3-|
D|-3-3-3-3-3-3-3-3-3-|
Pm....................

Chorus - 00:41
E|-----------------------------|
B|-----------------------------|
G|--------3--------------------| x2
D|-5------3-(x8)-3------1------|
A|-5-(x8)-1------3-(x8)-1-(x8)-|
D|-5-------------3------1------|

E|--------------------|
B|--------------------|
G|-----------3-3------|
D|-5-5--1-1--3-3--3-3-|
A|-5-5--1-1--1-1--3-3-|
D|-5-5--1-1-------3-3-|

E|------------------------|
B|------------------------|
G|--------3---------------|
D|-5------3-(x8)-3------1-|
A|-5-(x8)-1------3-(x8)-1-|
D|-5-------------3------1-|

Re-Intro - 01:07
E|-----------------------------|
B|-----------------------------| Lead
G|----15-14----------15-14-----|
D|-17-------15-17-17-------15~-| x2
A|-----------------------------|
D|-----------------------------|

E|-----------------------------|
B|-----------------------------| Rhythm
G|--------3--------------------|
D|-5------3-(x8)-3------1------|
A|-5-(x8)-1------3-(x8)-1-(x8)-|
D|-5-------------3------1------|

Verse - 1:13
E|--------------------|---------------------------------|
B|--------------------|---------------------------------| Rhythm
G|-3-3--2-2-----------|-3-3-----------------------------|
D|-3-3--3-3--1-1--1-1-|-3-3-----------------------------|
A|-1-1--0-0--1-1--1-1-|-1-1-1-1-1-1-1-1-1-1-1-1-1-1-1-1-|
D|-----------1-1--1-1-|---------------------------------|
Pm                          ............................

E|-----------------------------------------------------------------|
B|-----------------------------------------------------------------| Rhythm
G|-2-2-------------------------------------------------------------|
D|-3-3-----------------------------1-1-----------------------------|
A|-0-0-0-0-0-0-0-0-0-0-0-0-0-0-0-0-1-1-----------------------------|
D|---------------------------------1-1-1-1-1-1-1-1-1-1-1-1-1-1-1-1-|
Pm     ...........................     ............................

E|-------------------|
B|-------------------| Rhythm
G|-------------------|
D|-------------------|
A|-----------------3-|
D|-3-3-3-3-3-3-3-3-3-|
Pm....................

E|-------------------------------------------------|
B|-------18-------18-------18-------18-------18----| Lead
G|-14-15----14-15----14-15----14-15----14-15----15-| x7
D|-------------------------------------------------|
A|-------------------------------------------------|
D|-------------------------------------------------|

E|----------------------------|
B|-------18-------18-------18-| Lead
G|-14-15----14-15----14-15----|
D|----------------------------|
A|----------------------------|
D|----------------------------|

Chorus - 1:39
E|-----------------------------|
B|-----------------------------|
G|--------3--------------------| x2
D|-5------3-(x8)-3------1------|
A|-5-(x8)-1------3-(x8)-1-(x8)-|
D|-5-------------3------1------|

E|--------------------|
B|--------------------|
G|-----------3-3------|
D|-5-5--1-1--3-3--3-3-|
A|-5-5--1-1--1-1--3-3-|
D|-5-5--1-1-------3-3-|

E|------------------------|
B|------------------------|
G|--------3---------------|
D|-5------3-(x8)-3------1-|
A|-5-(x8)-1------3-(x8)-1-|
D|-5-------------3------1-|

Bridge - 2:04-2:30
E|-------------------------|------------------------------------------------|
B|-------------------------|-18-18-18-18-------------18-18-18-18------------|
G|-------15-17-------15-17-|-------------15-15-17-17-------------15-15-17-17|
D|-17-17-------17-17-------|------------------------------------------------|
A|-------------------------|------------------------------------------------|
D|-------------------------|------------------------------------------------|

E|-------------------------|-----------------------------|
B|-------------------------|-----------------------------| Lead
G|-------15-17-------15-17-|-----15-15-15-15-14-14-14-14-|
D|-15-15-------15-15-------|-15~-------------------------|
A|-------------------------|-----------------------------|
D|-------------------------|-----------------------------|

E|-------------------------|------------------------------------------------|
B|-------------------------|-18-18-18-18-------------18-18-18-18------------|
G|-------15-17-------15-17-|-------------15-15-17-17-------------15-15-17-17|
D|-17-17-------17-17-------|------------------------------------------------|
A|-------------------------|------------------------------------------------|
D|-------------------------|------------------------------------------------|

E|-----------------------------|
B|-----------------------------| Lead
G|-----15-15-15-15-14-14-14-14-|
D|-15~-------------------------|
A|-----------------------------|
D|-----------------------------|

e|------------------------------------------------------------|
B|------------------------------------------------------------| Rhythm
G|--5-------8-------3-------2--------5-------8-------10-------|
D|--5-(x16)-8-(x16)-3-(x16)-3-(x16)--5-(x16)-8-(x16)-10-(x16)-|
A|--3-------6-------1-------0--------3-------6--------8-------|
D|------------------------------------------------------------|


Bridge2 - 2:30
E|-
B|-
G|-
D|- A few chords here, cant really hear them
A|-
D|-

Chorus - 2:40
E|-----------------------------|
B|-----------------------------|
G|--------3--------------------|
D|-5------3-(x8)-3------1------| x2
A|-5-(x8)-1------3-(x8)-1-(x8)-|
D|-5-------------3------1------|

E|--------------------|
B|--------------------|
G|-----------3-3------|
D|-5-5--1-1--3-3--3-3-|
A|-5-5--1-1--1-1--3-3-|
D|-5-5--1-1-------3-3-|

E|-----------------------------|
B|-----------------------------|
G|--------3--------------------|
D|-5------3-(x8)-3------1------| x3
A|-5-(x8)-1------3-(x8)-1-(x8)-|
D|-5-------------3------1------|

E|--------------------|
B|--------------------|
G|-----------3-3------|
D|-5-5--1-1--3-3--3-3-|
A|-5-5--1-1--1-1--3-3-|
D|-5-5--1-1-------3-3-|

E|-----------------------------|
B|-----------------------------|
G|--------3--------------------|
D|-5------3-(x8)-3------1------|
A|-5-(x8)-1------3-(x8)-1-(x5)-|
D|-5-------------3------1------|

[end]
-----------------------------------------------------------------------------
5. Stella

Intro Lead
e|-----------------------------1/5-3~---------------------------------------|
B|----/5~6~----/5~6~---6~5~-1~----------------------------------------------|
G|--5~-------6~------7~-----------------------------------------------------|
D|--------------------------------------------------------------------------|
A|--------------------------------------------------------------------------|
D|--------------------------------------------------------------------------|
  *Add Vibrato on notes when needed*

Intro Rhythm
e|--------------------------------------------------------------------------|
B|--------------------------------------------------------------------------|
G|---------------2222222222--3333333333--5555555555-------------------------|
D|--33333333333--2222222222--3333333333--5555555555-------------------------|
A|--33333333333--0000000000--1111111111--3333333333-------------------------|
D|--33333333333-------------------------------------------------------------|


Verse 1
e|--------------------------------------------------------------------------|
B|--------------------------------------------------------------------------|
G|-------------777777777--------------5555555555----------------------------|
D|--333333333--777777777--8888888888--5555555555----------------------------|
A|--333333333--555555555--8888888888--3333333333----------------------------|
D|--333333333-------------8888888888----------------------------------------|
PM  .........  .........  ..........  ..........

e|--------------------------------------------------------------------------|
B|--------------------------------------------------------------------------|
G|-------------777777777--------------5555555555----------------------------|
D|--333333333--777777777--8888888888--5555555555----------------------------|
A|--333333333--555555555--8888888888--3333333333----------------------------|
D|--333333333-------------8888888888----------------------------------------|
PM  .........  .........  .....

Chorus
e|--------------------------------------------------------------------------|
B|--------------------------------------------------------------------------|
G|---------------2222222222--3333333333--5555555555-------------------------|
D|--33333333333--2222222222--3333333333--5555555555-------------------------|
A|--33333333333--0000000000--1111111111--3333333333-------------------------|
D|--33333333333-------------------------------------------------------------|

e|----------------------------------------------------------------------------|
B|----------------------------------------------------------------------------|
G|---------------2222222222--7777777777--3~-----------------------------------|
D|--33333333333--2222222222--7777777777--3~-----------------------------------|
A|--33333333333--0000000000--5555555555--1~-----------------------------------|
D|--33333333333---------------------------------------------------------------|

Lead interlude thingy
e|-----------------------------1/5-3~---------------------------------------|
B|----/4~5~----/4~5~---5~4~-1~----------------------------------------------|
G|--5~-------6~------7~-----------------------------------------------------|
D|--------------------------------------------------------------------------|
A|--------------------------------------------------------------------------|
D|--------------------------------------------------------------------------|
  *Add Vibrato on notes when needed*

Verse 2
e|--------------------------------------------------------------------------|
B|--------------------------------------------------------------------------|
G|--------------77777777777--------------5555555555-------------------------|
D|--3333333333--77777777777--8888888888--5555555555-------------------------|
A|--3333333333--55555555555--8888888888--3333333333-------------------------|
D|--3333333333---------------8888888888-------------------------------------|
PM  ..........  ...........  ..........  ..........

e|--------------------------------------------------------------------------|
B|--------------------------------------------------------------------------|
G|-------------7777--------------5555555555---------------------------------|
D|--333333333--7777--8888888888--5555555555---------------------------------|
A|--333333333--5555--8888888888--3333333333---------------------------------|
D|--333333333--------8888888888---------------------------------------------|
PM  .........  ....  .....

Chorus
e|--------------------------------------------------------------------------|
B|--------------------------------------------------------------------------|
G|---------------2222222222--3333333333--5555555555-------------------------|
D|--33333333333--2222222222--3333333333--5555555555-------------------------|
A|--33333333333--0000000000--1111111111--3333333333-------------------------|
D|--33333333333-------------------------------------------------------------|

e|--------------------------------------------------------------------------|
B|--------------------------------------------------------------------------|
G|---------------2222222222--7777777777--33333333333------------------------|
D|--33333333333--2222222222--7777777777--33333333333------------------------|
A|--33333333333--0000000000--5555555555--11111111111------------------------|
D|--33333333333-------------------------------------------------------------|

Bridge
e|--------------------------------------------------------------------------|
B|--------------------------------------------------------------------------|
G|--77777777777--5555555555------------5~--------77777777777--5555555555----|
D|--77777777777--5555555555---8~---3~--5~--3~----77777777777--5555555555----|
A|--55555555555--3333333333---8~---3~--3~--3~----55555555555--3333333333----|
D|----------------------------8~---3~------3~-------------------------------|
PM                                                                  ....

e|--------------------------------------------------------------------------|
B|--------------------------------------------------------------------------|
G|--7777777777-----------5555555555-----------------------------------------|
D|--7777777777---8~--3~--5555555555----3~-----------------------------------|
A|--5555555555---8~--3~--3333333333----3~-----------------------------------|
D|---------------8~--3~----------------3~-----------------------------------|

Chorus
e|--------------------------------------------------------------------------|
B|--------------------------------------------------------------------------|
G|---------------2222222222--3333333333--5555555555-------------------------|
D|--33333333333--2222222222--3333333333--5555555555-------------------------|
A|--33333333333--0000000000--1111111111--3333333333-------------------------|
D|--33333333333-------------------------------------------------------------|

e|--------------------------------------------------------------------------|
B|--------------------------------------------------------------------------|
G|---------------2222222222--7777777777--33333333333------------------------|
D|--33333333333--2222222222--7777777777--33333333333------------------------|
A|--33333333333--0000000000--5555555555--11111111111------------------------|
D|--33333333333-------------------------------------------------------------|

[end]
-----------------------------------------------------------------------------
6. Sick Little Games

|-2----5---0------0---2-----5---0-------0---2-----5---0-|
|----3---------3---------3-----------3---------3--------|
|-------------------------------------------------------|
|-------------------------------------------------------|
|-------------------------------------------------------|
|-------------------------------------------------------|

|-----0--3--2--------3--2-------0--------|
|--3-----------3-----------3-------3-----|
|----------------------------------------|      x2
|----------------------------------------|
|----------------------------------------|
|----------------------------------------|

D                     Bm
Oh my God, I'm such a terrible mess
    G
I'm turned on by the tabloids
          A
You would never have guessed
           D
That I'm a sucker for their gossip
       Bm
Man, I take it too far
G
I bottle up my Hollywood
    A
And watch 'em name their kids after cars

G
I'm finding me out
A
I'm having my doubts
Bm             G
I'm losing the best of me

      D                  A
We're all part of the same
             Bm
Sick little games
               G
And I need to get away, get away
D                 A
I'm wasting my days
              Bm
I throw them away
           G                         D   A   Bm   G
Losing it all on these sick little games

D                           Bm
I fell in love, she was the friend of a sister
   G                   A
Of somebody famous at least for a day
D                      Bm
Expensive habits and a taste for the town
       G
Had me chasin down red carpets
    A
And watching all my friends slip away

G
They're finding me out
A
I'm having my doubts
Bm             G
I'm losing the best of me
G
Dressed up as myself
A
To live in the shadow
Bm            G
Of who I'm supposed to be

D                       A
We're all part of the same
              Bm
Sick little games
              G
And I need to get away, get away
D                A
I'm wasting my days
              Bm
I throw them away
          G
Losing it all on these sick little games

Bm
If I play my cards right
G
I could make the big time
Bm                     A
I could be a reason to stare
Bm
Caught up in the spot light
G
Shaking from the stage fright
Bm               A
How did I end up here?

D                 A
All part of the same
             Bm
Sick little games
              G
And I need to get away, get away, get away, get away

D                       A
We're all part of the same
              Bm
Sick little games
               G
And I need to get away, get away
D                 A
I'm wasting my days
              Bm
I throw them away
          G
Losing it all on these sick little games

D                A
All part of the same
             Bm
Sick little games
              G
And I need to get away, get away, get away, get away

[end]
-----------------------------------------------------------------------------
7. Hello Brooklyn

Intro/Verse:

guitar 1:
e|----------------------|
B|-------55-------------|
G|-44----44----22-------|
D|-44----22----22----44-| 4x
A|-22----------00----44-|
E|-------------------22-|

e|-----------------|
B|-------55--------|
G|-44----44--------|
D|-44----22----2---|
A|-22----------2---|
E|-----------7/0---|


guitar 2:
"I bleed, red lips, you're unbelievable"
e|---------------------------------|
B|--------55555555-----------------|
G|444444444444444422222222---------|
D|44444444222222222222222244444444-|
A|22222222--------0000000044444444-|
E|------------------------22222222-|
PM................................

e|------------------------|
B|--------55555555--------|
G|4444444444444444--------|
D|4444444422222222---2~~--|
A|22222222-----------2~~--|
E|-----------------7/0~~--|
PM................


guitar 3:
"I bleed, red lips, you're unbelievable"
e|-----~12~~----------------12~~--|
B|12~~-------10~~-7~~--12~~-------|
G|--------------------------------|
D|--------------------------------|
A|--------------------------------|
E|--------------------------------|
this part is very difficult to hear


Chorus 1:

e|-----------------------------------|
B|-----------------------------------|
G|22222222--------44444444/77777777--|
D|222222222222222244444444/77777777--| 3x
A|000000002222222222222222/55555555--|
E|--------00000000-------------------|

e|-----------------------------------|
B|-----------------------------------|
G|22222222----------44-----77--------|
D|2222222222222222--44-----77--------|
A|0000000022222222--22-----55--------|
E|--------00000000-------------------|

Verse 2:

guitar 1:
e|----------------------|
B|-------55-------------|
G|-44----44----22-------|
D|-44----22----22----44-| 3x
A|-22----------00----44-|
E|-------------------22-|

e|-----------------|
B|-------55--------|
G|-44----44--------|
D|-44----22----2---|
A|-22----------2---|
E|-----------7/0---|

guitar 2:
"I'll be yours truly unbelievable"
e|---------------------------------|
B|--------55555555-----------------|
G|444444444444444422222222---------|
D|44444444222222222222222244444444-|
A|22222222--------0000000044444444-|
E|------------------------22222222-|
PM................................

e|------------------------|
B|--------55555555--------|
G|4444444444444444--------|
D|4444444422222222---2~~--|
A|22222222-----------2~~--|
E|-----------------7/0~~--|
PM................


guitar 3:
e|--------12-1212----------------|
B|12-1212--x--x-x-10-1010--7-77--|
G|-x--x-x--9--9-9--x--x-x--x-xx--|
D|-9--9-9----------7--7-7--4-44--| 3x
A|-------------------------------|
E|-------------------------------|

e|--------12-1212--|
B|12-1212--x--x-x--|
G|-x--x-x--9--9-9--|
D|-9--9-9----------|
A|-----------------|
E|-----------------|
this time guitar 3 starts with guitar 1




Chorus 2:
Same as chorus 1


Bridge:

guitar 1:
e|------------------------------------------------5~~---|
B|------------------------------------------------6~~---|
G|----------7777777799999999------------77777777--7~~---|
D|44---22---7777777799999999--44---22---77777777--7~~---|
A|44---22---5555555577777777--44---22---55555555--5~~---|
E|22---00---------------------22---00-------------------|

guitar 2:
e|55544----(seven----5554477-|--55544----(four-----5555555577777777--|
B|-----555----times)---------|-------555----times)-------------------|
G|---------------------------|---------------------------------------|


Chorus 3/Outro:

e|-----------------------------------|
B|-----------------------------------|
G|22--------44---77---22--------7~~--|
D|22---22---44---77---22---22---7~~--|
A|00---22---22---55---00---22---5~~--|
E|-----00------------------00--------|

e|-----------------------------------|
B|-----------------------------------|
G|22222222--------44444444/77777777--|
D|222222222222222244444444/77777777--| 5x
A|000000002222222222222222/55555555--|
E|--------00000000-------------------|

e|--------------------------------|
B|--------------------------------|
G|22222222----------44--77---2~~--|
D|2222222222222222--44--77---2~~--|
A|0000000022222222--22--55---0~~--|
E|--------00000000----------------|

[end]
-----------------------------------------------------------------------------
8. Walls

Tuning: DADGBE

1st Verse
e|--------------------------------------------------------------------------|
B|--------------------------------------------------------------------------|
G|--------------------------------------------------------------------------|
D|5-10-5--------------------------------------------------------------------|
A|--------------------------------------------------------------------------|
E|--------------------------------------------------------------------------|

Pre-Chorus
e|--------------------------------------------------------------------------|
B|--------------------------------------------------------------------------|
G|--------------------------------------------------------------------------|
D|5-7-10-1010101010101010---------------------------------------------------|
A|5-7-10-1010101010101010---------------------------------------------------|
E|5-7-10-1010101010101010---------------------------------------------------|

Chorus
e|--------------------------------------------------------------------------|
B|--------------------------------------------------------------------------|
G|--------------------------------------------------------------------------|
D|555555-000000-222222-101010101010-----------------------------------------|
A|555555-000000-222222-101010101010-----------------------------------------|
E|555555-000000-222222-101010101010-----------------------------------------|

e|--------------------------------------------------------------------------|
B|--------------------------------------------------------------------------|
G|--------------------------------------------------------------------------|
D|555555-000000-101010101010101010101010------------------------------------|
A|555555-000000-101010101010101010101010------------------------------------|
E|555555-000000-101010101010101010101010------------------------------------|

e|--------------------------------------------------------------------------|
B|--------------------------------------------------------------------------|
G|--------------------------------------------------------------------------|
D|555555-777777-222222-101010101010-----------------------------------------|
A|555555-777777-222222-101010101010-----------------------------------------|
E|555555-777777-222222-101010101010-----------------------------------------|

e|--------------------------------------------------------------------------|
B|--------------------------------------------------------------------------|
G|--------------------------------------------------------------------------|
D|555555-000000-101010101010101010101010------------------------------------|
A|555555-000000-101010101010101010101010------------------------------------|
E|555555-000000-101010101010101010101010------------------------------------|

Pre verse / 2nd Verse
e|-----------|--------------------------------------------------------------|
B|-----------|--------------------------------------------------------------|
G|-----------|--------------------------------------------------------------|
D|5-tremolo--|-55555555-77777777-22222222-1010101010101010---x2-------------|
A|-----------|-55555555-77777777-22222222-1010101010101010------------------|
E|-----------|-55555555-77777777-22222222-1010101010101010------------------|

Chorus

Bridge
e|--------------------------------------------------------------------------|
B|--------------------------------------------------------------------------|
G|--------------------------------------------------------------------------|
D|22222222------------------------------------------------------------------|
A|22222222------------------------------------------------------------------|
E|22222222-44444-55555-77777-99999-1010101010-99999-------------------------|

e|--------------------------------------------------------------------------|
B|--------------------------------------------------------------------------|
G|--------------------------------------------------------------------------|
D|22222222------------------------------------------------------------------|
A|22222222------------------------------------------------------------------|
E|22222222-1010101010-99999-77777-55555-44444-55555-------------------------|

e|--------------------------------------------------------------------------|
B|--------------------------------------------------------------------------|
G|--------------------------------------------------------------------------|
D|--------------------------------------------------------------------------|
A|--------------------------------------------------------------------------|
E|-1010101010-99999-77777-55555-44444-55555---------------------------------|

Solo Rhythm
e|--------------------------------------------------------------------------|
B|--------------------------------------------------------------------------|
G|--------------------------------------------------------------------------|
D|555555-000000-222222-101010101010-----------------------------------------|
A|555555-000000-222222-101010101010-----------------------------------------|
E|555555-000000-222222-101010101010-99999-77777-55555-44444-55555-----------|

e|--------------------------------------------------------------------------|
B|--------------------------------------------------------------------------|
G|--------------------------------------------------------------------------|
D|--------------------------------------------------------------------------|
A|--------------------------------------------------------------------------|
E|-1010101010-99999-77777-55555-44444-55555---------------------------------|

Solo Lead

e|------17---22-20-19-15----------------------------------------------------|
B|15-17---15----------------------------------------------------------------|
G|--------------------------------------------------------------------------|
D|--------------------------------------------------------------------------|
A|--------------------------------------------------------------------------|
E|--------------------------------------------------------------------------|

Chorus / Outro

e|---|----------------------------------------------------------------------|
B|---|----------------------------------------------------------------------|
G|---|----------------------------------------------------------------------|
D|5--|-55555555-77777777-22222222-1010101010101010--------------------------|
A|---|-55555555-77777777-22222222-1010101010101010--------------------------|
E|---|-55555555-77777777-22222222-1010101010101010--------------------------|

e|--------------------------------------------------------------------------|
B|--------------------------------------------------------------------------|
G|--------------------------------------------------------------------------|
D|555555-000000-101010101010101010101010------------------------------------|
A|555555-000000-101010101010101010101010------------------------------------|
E|555555-000000-101010101010101010101010------------------------------------|

e|----------------------------------------------------------------------------|
B|----------------------------------------------------------------------------|
G|----------------------------------------------------------------------------|
D|555555-000000-222222--------------------------------------------------------|
A|555555-000000-222222--------------------------------------------------------|
E|555555-000000-222222-1010101010-999999-77777-55555-44444-55555--------------|

e|--------------------------------------------------------------------------|
B|--------------------------------------------------------------------------|
G|--------------------------------------------------------------------------|
D|------------------------------------------55------------------------------|
A|------------------------------------------55------------------------------|
E|-1010101010-99999-77777-55555-44444-55555-55------------------------------|

[end]
-----------------------------------------------------------------------------
9. Too Much

Capo on 1st fret

Verse 1:
D        Em               C
I admit I miss seeing your face babe
      D                     Em
Being alone is starting to take its toll
    C
I'm cold and it's getting old
D          Em                  C
I admit I should've made some changes
        D                Em                   C
We were so smothered in love we didn't have a chance to come up for air
       D
What a waste
              Em                     C
Where did the time go? where did our minds go? I don't know
       D                          Em          C
What's this place? Where did our home go? We won't know, I don't know.

Chorus:
D           Em              C
Too much of anything is too much
D         Em             C
Too much love can be too much
       D             Em
We had too much time too much us
      C
So we fought like tomorrow was promised
D    Em    C
Too much x8

Verse 2:
D       Em                     C
I admit I'm still watching the days go by
         D                    Em
Sleeping alone is starting to break me down
     C
It's cold, but I should have known
D         Em            C
I admit I made a few mistakes babe
           D            Em                    C
We were so caught up in love we didn't have a chance to come up for air
       D
What a waste
                Em                    C
Where does the time go? Where did our minds go? I don't know
            D                   Em              C
What's this place? Where did my heart go? We'll never know, I'll never know

Repeat chorus

Bridge:
Em
I need to find a reason to feel
A
Like everything was meant to be let go
C
Take it slow
                 D     Em
Cause I can't be on my own

Repeat chorus

[end]
-----------------------------------------------------------------------------
10. Keep the Change, You Filthy Animal

Tuning:Drop D

0:00-0:05
e|----0-0-7-0-4-0-2/4-0-0-5-4---0-7-0-4-0-2/4-0-5-4-2-0---------|
B|--------------------------------------------------------------|
G|--------------------------------------------------------------|
D|-6\-----------------------------------------------------------|
A|-6\-----------------------------------------------------------|
D|-6\-----------------------------------------------------------|

0:06-0:11
e|----0-0-7-0-4-0-2/4-0-0-5-4---0-7-4~--------------------------|
B|--------------------------------------------------------------|
G|--------------------------------------------------------------|
D|--------------------------------------------------------------|
A|--------------------------------------------------------------|
D|--------------------------------------------------------------|

0:12-0:20
e|--------------------------------------------------------------|
B|--------------------------------------------------------------|
G|---------------------[X8]-----[X8]----------------------------|
D|--[X15]------------44444444-22222222------[X15]---------------|
A|-2-222222222222222-22222222-00000000-222222222222222-3*-------|
D|-2-222222222222222-------------------222222222222222----------|
     ............... ........ ........ ...............

0:21-0:28
e|--------------------------------------------------------------|
B|--------------------------------------------------------------|
G|---------------------[Listen for strumming rhythm]------------|
D|-44444444p22222222-------------44444444-22222222--------------|
A|-22222222p00000000----22222222-22222222-00000000--------------|
D|----------------------22222222--------------------------------|

0:29-0:34
e|--------------------------------------------------------------|
B|--------------------------------------------------------------|
G|--------------------------------------------------------------|
D|--------------------------------------------------------------|
A|-2-2---2-2---22-222222222222----------------------------------|
D|-0-0---0-0---00-000000000000----------------------------------|
                  ............

0:35-0:57
e|--------------------------------------------------------------|
B|--------------------------------------------------------------|
G|----[Listen for strumming rhythm]-----------------------------|
D|--------------44444444-22222222-------------------------------|
A|-----22222222-22222222-00000000-------------------------------|
D|-----22222222-------------------------------------------------|

0:58-1:03
e|----0-0-7-0-4-0-2/4-0-0-5-4---0-7-0-4-0-2/4-0-5-4-2-0---------|
B|--------------------------------------------------------------|
G|--------------------------------------------------------------|
D|--------------------------------------------------------------|
A|--------------------------------------------------------------|
D|--------------------------------------------------------------|

1:04-1:09
e|----0-0-7-0-4-0-2/4-0-0-5-4---0-7-4~--------------------------|
B|--------------------------------------------------------------|
G|--------------------------------------------------------------|
D|--------------------------------------------------------------|
A|--------------------------------------------------------------|
D|--------------------------------------------------------------|

This is extremely hard to hear so I did the best I could to interpret
it. Please correct me if you know the right tab.
1:10-1:17
e|-------------------------------------------------------------|
B|-------------------------------------------------------------|
G|--4-4-4-4-2-2-2-2-0-0-0-0-2-2-2-2-4-4-4-4-2-2-2-2------------|
D|-2-2-2-2-2-2-2-2-2-2-2-2-2-2-2-2-2-2-2-2-2-2-2-2-------------|
A|-------------------------------------------------------------|
D|-------------------------------------------------------------|
   ................................................

1:18-1:26
e|--------------------------------------------------------------|
B|--------------------------------------------------------------|
G|---------------------[Listen for strumming rhythm]------------|
D|-44444444p22222222-------------44444444-22222222--------------|
A|-22222222p00000000----22222222-22222222-00000000--------------|
D|----------------------22222222--------------------------------|

1:27-1:32
e|--------------------------------------------------------------|
B|--------------------------------------------------------------|
G|--------------------------------------------------------------|
D|--------------------------------------------------------------|
A|-2-2---2-2---22-222222222222----------------------------------|
D|-0-0---0-0---00-000000000000----------------------------------|
                  ............
1:33-1:56
e|--------------------------------------------------------------|
B|--------------------------------------------------------------|
G|----[Listen for strumming rhythm]-----------------------------|
D|--------------44444444-22222222-------------------------------|
A|-----22222222-22222222-00000000-------------------------------|
D|-----22222222-------------------------------------------------|

1:57-2:22
e|--------------------------------------------------------------|
B|--------------------------------------------------------------|
G|--2-2-2-2-2-2-2-2-2-2-2-2-2-2-2-2-----------------------------|
D|-2-2-2-2-2-2-2-2-2-2-2-2-2-2-2-2------------------------------|
A|--------------------------------------------------------------|
E|--------------------------------------------------------------|

Guitar unaudible [2:23-2:45]

2:46-3:07
e|--------------------------------------------------------------|
B|--------------------------------------------------------------|
G|----[Listen for strumming rhythm]-----------------------------|
D|--------------44444444-22222222-------------------------------|
A|-----22222222-22222222-00000000-------------------------------|
D|-----22222222-------------------------------------------------|

3:08-3:13
e|----0-0-7-0-4-0-2/4-0-0-5-4---0-7-0-4-0-2/4-0-5-4-2-0---------|
B|--------------------------------------------------------------|
G|--------------------------------------------------------------|
D|--------------------------------------------------------------|
A|--------------------------------------------------------------|
D|--------------------------------------------------------------|

3:14-3:19
e|----0-0-7-0-4-0-2/4-0-0-5-4---0-7-4~--------------------------|
B|--------------------------------------------------------------|
G|--------------------------------------------------------------|
D|--------------------------------------------------------------|
A|--------------------------------------------------------------|
D|--------------------------------------------------------------|

[end]
-----------------------------------------------------------------------------
11.A Party Song (The Walk Of Shame)

Tunings:

Guitar 1: Drop-D
Guitar 2: Standard/Drop-D
Guitar 3: Standard/Drop-D

[Intro/Refrain]

Guitar 1:

e|------------------------------------------------------------------------|
B|------------------------------------------------------------------------|
G|------------------------------------------------------------------------|
D|-1-1-----8-8-----6-6-----6-6-----1-1-----8-8-----6-6-----6-6----6/8-----|
A|-1-1-----8-8-----6-6-----6-6-----1-1-----8-8-----6-6-----6-6----6/8-----|
D|-1-1-----8-8-----6-6-----6-6-----1-1-----8-8-----6-6-----6-6----6/8-----|

Guitar 2:

e|------------------------------------------------------------------------|
B|-8-----8-----8---9-8----8---8---------8---9-8---------------------------|
G|---10----8-----8-----10-------10--7-8---8-----10-8----------------------|
D|------------------------------------------------------------------------|
A|------------------------------------------------------------------------|
D|------------------------------------------------------------------------|

Guitar 1:

e|------------------------------------------------------------------------|
B|------------------------------------------------------------------------|
G|------------------------------------------------------------------------|
D|-1-1-----8-8-----6-6-----6-6-----1-1-----8-8-----6----------------------|
A|-1-1-----8-8-----6-6-----6-6-----1-1-----8-8-----6----------------------|
D|-1-1-----8-8-----6-6-----6-6-----1-1-----8-8-----6----------------------|

Guitar 2:

e|------------------------------------------------------------------------|
B|-8-----8-----8---9-8----8---8-------------------------------------------|
G|---10----8-----8-----10-------10--7-8-----------------------------------|
D|------------------------------------------------------------------------|
A|------------------------------------------------------------------------|
D|------------------------------------------------------------------------|

[Verse 1]

Guitar 1:

e|------------------------------------------------------------------------|
B|------------------------------------------------------------------------|
G|------------------------------------------------------------------------|
D|-1-1--1-111--1-111--1-1--6-6---1-1--1-111--1-111--1-1--6-6--------------|
A|-1-1--1-111--1-111--1-1--6-6---1-1--1-111--1-111--1-1--6-6--------------|
D|-1-1--1-111--1-111--1-1--6-6---1-1--1-111--1-111--1-1--6-6--------------|

Guitar 1:

e|------------------------------------------------------------------------|
B|------------------------------------------------------------------------|
G|--------------------------------55555555--------------------------------|
D|-1-1--1-111--1-111--1-1--6-6----55555555-6666666-/-8--------------------|
A|-1-1--1-111--1-111--1-1--6-6----33333333-6666666-/-8--------------------|
D|-1-1--1-111--1-111--1-1--6-6-------------6666666-/-8--------------------|

Guitar 2:

e|------------------------------------------------------------------------|
B|---------------------------------9---11-1111111111111111-99999999-------|
G|-----------------------------------8----8-8-8-8-8-8-8-8--88888888-------|
D|------------------------------------------------------------------------|
A|------------------------------------------------------------------------|
D|------------------------------------------------------------------------|

Guitar 3:

e|------------------------------------------------------------------------|
B|------------------------------------------------8----9-8----------------|
G|---------------------------------------------10---8------10-8-----------|
D|------------------------------------------------------------------------|
A|------------------------------------------------------------------------|
D|------------------------------------------------------------------------|


[Chorus]

Guitar 1:

e|------------------------------------------------------------------------|
B|------------------------------------------------------------------------|
G|------------------------------------------------------------------------|
D|-1-1---5-5---66666666--1-1---8-8---66666666--1111-8888-5555-6666--------|
A|-1-1---5-5---66666666--1-1---8-8---66666666--1111-8888-5555-6666--------|
D|-1-1---5-5---66666666--1-1---8-8---66666666--1111-8888-5555-6666--------|

Guitar 2:

e|-------------88888888--------------88888888-----------------------------|
B|-------------99999999--------------99999999------11-8---8-8-9--11-------|
G|--10p8--10p8------------10p8--10p8-----------8888----10--8---10---------|
D|-8-----8---------------8-----8------------------------------------------|
A|------------------------------------------------------------------------|
D|------------------------------------------------------------------------|

Guitar 1:

e|------------------------------------------------------------------------|
B|------------------------------------------------------------------------|
G|-5-5--------------------------------------------------------------------|
D|-5-5--5-5--66666666-----------------------------------------------------|
A|-3-3--5-5--66666666-----------------------------------------------------|
D|------5-5--66666666-----------------------------------------------------|

Guitar 2:

e|-----------88888888-----------------------------------------------------|
B|-----------99999999-----------------------------------------------------|
G|--10p8--8---------------------------------------------------------------|
D|-8-----8----------------------------------------------------------------|
A|------------------------------------------------------------------------|
D|------------------------------------------------------------------------|


[Refrain]

Guitar 1:

e|------------------------------------------------------------------------|
B|------------------------------------------------------------------------|
G|------------------------------------------------------------------------|
D|-1-1-----8-8-----6-6-----6-6-----1-1-----8-8-----6----------------------|
A|-1-1-----8-8-----6-6-----6-6-----1-1-----8-8-----6----------------------|
D|-1-1-----8-8-----6-6-----6-6-----1-1-----8-8-----6----------------------|

Guitar 2:

e|------------------------------------------------------------------------|
B|-8-----8-----8---9-8----8---8-------------------------------------------|
G|---10----8-----8-----10-------10--7-8-----------------------------------|
D|------------------------------------------------------------------------|
A|------------------------------------------------------------------------|
D|------------------------------------------------------------------------|


[Verse 2]

Guitar 1:

e|------------------------------------------------------------------------|
B|------------------------------------------------------------------------|
G|------------------------------------------------------------------------|
D|-1-1--1-111--1-111--1-1--6-6---1-1--1-111--1-111--1-1--6-6--------------|
A|-1-1--1-111--1-111--1-1--6-6---1-1--1-111--1-111--1-1--6-6--------------|
D|-1-1--1-111--1-111--1-1--6-6---1-1--1-111--1-111--1-1--6-6--------------|

Guitar 1:

e|------------------------------------------------------------------------|
B|------------------------------------------------------------------------|
G|--------------------------------55555555--------------------------------|
D|-1-1--1-111--1-111--1-1--6-6----55555555-6666666-/-8--------------------|
A|-1-1--1-111--1-111--1-1--6-6----33333333-6666666-/-8--------------------|
D|-1-1--1-111--1-111--1-1--6-6-------------6666666-/-8--------------------|

Guitar 2:

e|------------------------------------------------------------------------|
B|---------------------------------9---11-1111111111111111-99999999-------|
G|-----------------------------------8----8-8-8-8-8-8-8-8--88888888-------|
D|------------------------------------------------------------------------|
A|------------------------------------------------------------------------|
D|------------------------------------------------------------------------|

Guitar 3:

e|------------------------------------------------------------------------|
B|------------------------------------------------8----9-8----------------|
G|---------------------------------------------10---8------10-8-----------|
D|------------------------------------------------------------------------|
A|------------------------------------------------------------------------|
D|------------------------------------------------------------------------|


[Repeat Chorus]


[Bridge]

Guitar 1:

e|------------------------------------------------------------------------|
B|------------------------------------------------------------------------|
G|-55555555-----------------------------5555------------------------------|
D|-55555555--66666666--1--1---88888888--5555-55555555-66666666---8-8------|
A|-33333333--66666666--1--1---88888888--3333-55555555-66666666---8-8------|
D|-----------66666666--1--1---88888888-------55555555-66666666---8-8------|

Guitar 2:

e|------------------------------------------------------------------------|
B|------------------------------------------------------------------------|
G|---------------------3--3------3---------------3-5----------------------|
D|-1-1-1-1-0-1-1-1-1-3------6-5---6-5-3--1-1-1-5-----3-6-5-3-1-6531-11-33-|
A|-----------------------------------------------------------------3------|
D|------------------------------------------------------------------------|


[Partial Chorus]

 |------------------------------------------------------------------------|

Guitar 1:

e|------------------------------------------------------------------------|
B|------------------------------------------------------------------------|
G|-----------------------5-5----------------------------------------------|
D|-1111-8888-5555-6666---5-5--5-5--66666666-------------------------------|
A|-1111-8888-5555-6666---3-3--5-5--66666666-------------------------------|
D|-1111-8888-5555-6666--------5-5--66666666-------------------------------|

Guitar 2:

e|---------------------------------88888888-------------------------------|
B|-----11-8---8-8-9--11------------99999999-------------------------------|
G|-8888----10--8---10-----10p8--8-----------------------------------------|
D|-----------------------8-----8------------------------------------------|
A|------------------------------------------------------------------------|
D|------------------------------------------------------------------------|


[Repeat Refrain]


[end]
-----------------------------------------------------------------------------
12. Therapy

standard tuning
standard key

intro

--------------------------------------------------------------------------|
---2h3-2-----------2h3-2----------2----2-------2h3-2----------------------|
--2------2-4-2----2------2-4-2---2-2--2-2-----2-------2-4-2---------------|
----------------0---------------------------0-----------------------------|
-0------------------------------------------------------------------------|
--------------------------------2----0------------------------------------|

prechorus

--------------------------------------------------------------------------|
------2-------0------3----------------------------------------------------|
--2--2----1--1-1-----2--let-it-ring---------------------------------------|
--4-------2----------0----------------------------------------------------|
--4-------2----------0----------------------------------------------------|
--------------------------------------------------------------------------|

chorus .

--0-----0-----2-----2-----------------------------------------------------|
--2-----0-----2-----3-----------------------------------------------------|
--2-----1-----2-----2-----------------------------------------------------|
--2-----2-----4-----0-----------------------------------------------------|
--0-----2-----4-----0-----------------------------------------------------|
--------------2-----------------------------------------------------------|


--------------------------------------------------------------------------|
---2h3-2-----------2h3-2----------2----2-------2h3-2----------------------|
--2------4-2------2------4-2-----2-2--2-2-----2-------2-4-2---------------|
----------------0---------------------------0-----------------------------|
-0------------------------------------------------------------------------|
--------------------------------2----0------------------------------------|

chorus

--0-----0-----2-----2-----------------------------------------------------|
--2-----0-----2-----3-----------------------------------------------------|
--2-----1-----2-----2-----------------------------------------------------|
--2-----2-----4-----0-----------------------------------------------------|
--0-----2-----4-----0-----------------------------------------------------|
--------------2-----------------------------------------------------------|

bridge

--2------0------0---------------------------------------------------------|
--3------2------0---------------------------------------------------------|
--4------2------1---------------------------------------------------------|
--4------2------2---------------------------------------------------------|
--2------0------2---------------------------------------------------------|
--------------------------------------------------------------------------|

--2------0-----2------0---------------------------------------------------|
--3------2-----2------0---------------------------------------------------|
--4------2-----2------1---------------------------------------------------|
--4------2-----4------2---------------------------------------------------|
--2------0-----4------2---------------------------------------------------|
---------------2----------------------------------------------------------|

chrous .

--0-----0-----2-----2-----------------------------------------------------|
--2-----0-----2-----3-----------------------------------------------------|
--2-----1-----2-----2-----------------------------------------------------|
--2-----2-----4-----0-----------------------------------------------------|
--0-----2-----4-----0-----------------------------------------------------|
--------------2-----------------------------------------------------------|

outro .

---------------------------------------------0----------------------------|
---2h3-2-----------2h3-2----------2----2-----3----------------------------|
--2------4-2------2------4-2-----2-2--2-2----2----------------------------|
----------------0----------------------------0----------------------------|
-0-------------------------------------------0----------------------------|
--------------------------------2----0------------------------------------|
[end]
comments
print report bad tab
I want to post or [tab]
guest
You may want to rate the tab now too:
select rating
Please do not post tabs as comments. Select "correction" instead!