Oops, an error
Loading. Please wait.

Put Up Or Shut Up Tab

1,772 views 9 this week
no commentswrite comment
1 2 3 4 5
accurate
x 2
Autoscroll
+/-
esc
set tempo
stop
Contributor
Difficulty
intermediate
Hey! There's an official Ultimate Guitar app which is ideal
for learning songs when you're away from computer. Get the app
WARNING: You are trying to view
                                    content from Ultimate-Guitar.com
                                    in an unauthorized application,
                                    which is prohibited.

                                    Please use an official Ultimate
                                    Guitar Tabs application for iPhone,
                                    iPad or Android to access legitimate
                                    chords, guitar, bass, and drum tabs
                                    from Ultimate-Guitar.com database.

                                    Type "ultimate guitar tabs" in Apple
                                    App Store's or Android Market's
                                    search to find the application.
==================================================================================
Song:Coffeeshop Soundtrack
==================================================================================
Tuning:eBGDAE

Intro/verse1
e:-----------------------------------------------|
B:-----------------------------------------------|
G:666666-----------------------------------------|x2
D:666666-7777777777------------------------------|
A:444444-7777777777------------------------------|
E:-------5555555555------------------------------|
pm..................

e:-------------------------------------------------|
B:-------------------------------------------------|
G:666666--------------99999999---------------------|x2
D:666666-7777777777---99999999-99999999------------|
A:444444-7777777777x2-77777777-99999999------------|
E:-------5555555555------------77777777------------|


Chorus
e:------------------------------------------------|
B:------------------------------------------------|
G:---------22222222-66-44-22222222----------------|
D:22222222-22222222-66-44-22222222----------------|
A:22222222-00000000-44-22-00000000----------------|
E:00000000----------------------------------------|

e:---------------------------------------------------|
B:---------------------------------------------------|
G:---------22222222-66-44-66-44-2222-----------------|
D:22222222-22222222-66-44-66-44-2222-2~~~------------|
A:22222222-00000000-44-22-44-22-0000-2~~~------------|
E:00000000---------------------------0~~~------------|

verse2 (guitar comes about half way through the verse)
e:------------------------------------------------|
B:------------------------------------------------|
G:6666-5555-4444-3333-22222222-44444444-----------|
D:6666-6666-4444-4444-22222222-44444444-----------|
A:4444-3333-2222-1111-00000000-22222222-----------|
E:------------------------------------------------|

chorus
e:------------------------------------------------|
B:------------------------------------------------|
G:---------22222222-66-44-22222222----------------|
D:22222222-22222222-66-44-22222222----------------|
A:22222222-00000000-44-22-00000000----------------|
E:00000000----------------------------------------|

e:------------------------------------------------|
B:------------------------------------------------|
G:---------22222222-66-44-22222222----------------|
D:22222222-22222222-66-44-22222222----------------|
A:22222222-00000000-44-22-00000000----------------|
E:00000000----------------------------------------|

Bridge1
e:--------------------|
B:--------------------|
G:6666-5555-4444-3333-|
D:6666-6666-4444-4444-|x3
A:4444-3333-2222-1111-|
E:--------------------|

e:---------------------|
B:---------------------|
G:6666-5555-2222222444-|
D:6666-6666-2222222444-|
A:4444-3333-0000000222-|
E:---------------------|
pm          .......
verse3 (same as chouses except some is palm muted)
e:-------------------------------------------------|
B:-------------------------------------------------|
G:---------22222222-6666-4444-22222222-------------|
D:22222222-22222222-6666-4444-22222222-------------|
A:22222222-00000000-4444-2222-00000000-------------|
E:00000000-----------------------------------------|
p.m...................................

e:-------------------------------------------------|
B:-------------------------------------------------|
G:---------22222222-66---44---22222222-------------|
D:22222222-22222222-66---44---22222222-------------|
A:22222222-00000000-44---22---00000000-------------|
E:00000000-----------------------------------------|
pm.................
chorus/End
e:----------------------------------------------------|
B:----------------------------------------------------|
G:---------22222222-6666-4444-22222222----------------|
D:22222222-22222222-6666-4444-22222222----------------|
A:22222222-00000000-4444-2222-00000000----------------|
E:00000000--------------------------------------------|

e:----------------------------------------------------|
B:----------------------------------------------------|
G:---------22222222-66-44-2~~~~~~~--------------------|
D:22222222-22222222-66-44-2~~~~~~~--------------------|
A:22222222-00000000-44-22-0~~~~~~~--------------------|
E:00000000--------------------------------------------




==================================================================================
Song: Breakout! Breakout!
==================================================================================
Tuning:EADGBe

Intro g1
E|---------------------------------------------------|
B|---------------------------------------------------|
G|--------11~/6~-----11--11--11--11--11--11--11--11--|
D|-6~--2~---------9-9--9---9---9---9---9---9---9-----|
A|-6~--2~----------9----9---9---9---9---9---9---9----|
E|-4~--0~--------------------------------------------|

E|---------------------------------------------------|
B|---------------------------------------------------|
G|-11111111-1111-4444-88-4444-88-4444-666------------| x2
D|--x-x-x-x--x-x-xxxx-xx-xxxx-xx-xxxx-xxx------------|
A|--9-9-9-9--9-9-2222-66-2222-66-2222-444------------|
E|---------------------------------------------------|

Intro g2
E|---------------------------------------------------|
B|---------------------------------------------------|
G|-3-44444444-3-44444444-3-44444444-333333333--------|
D|--4----------4----------4--------------------------|
A|---------------------------------------------------|
E|---------------------------------------------------|

E|-------------------------------------|
B|-------------------------------------|
G|-------------44------44--------------| x2
D|-666666-2222-44-2222-44--2222-444----|
A|-666666-2222-22-2222-22--2222-444----|
E|-444444-0000----0000-----0000-222----|

E|---------------------------------------------------|
B|---------------------------------------------------|
G|-11111111-1111-4444-88-4444-88-4444-666------------| x2
D|--x-x-x-x--x-x-xxxx-xx-xxxx-xx-xxxx-xxx------------|
A|--9-9-9-9--9-9-2222-66-2222-66-2222-444------------|
E|---------------------------------------------------|

Verse g1 and g2
E|---------------------------------|
B|---------------------------------|
G|---------444~~~------------------|
D|-xxxxxxx-444~~~--6666666-222~~~--|
A|-xxxxxxx-222~~~--6666666-222~~~--|
E|-xxxxxxx—--------4444444-000~~~--|
Pm                 *******

Pre-Chorus g1
E|---------------------------------------------------------------|
B|---------------------------------------------------------------|
G|-44444444------------------------------------------------------|
D|-44444444-44444444-66666666-44444444-2222~~-2222~-44444444-----|
A|-22222222-44444444-66666666-44444444-2222~~-2222~-44444444-----|
E|----------22222222-44444444-22222222-0000~~-0000~-22222222-----|

Pre-Chorus g2
E|----------------------------------------------------------|
B|----------------------------------------------------------|
G|-1111111111111111-44444444-88888888-1111111111111111------|
D|--x-x-x-x-x-x-x-x-xxxxxxxx-xxxxxxxx—-x-x-x-x-x-x-x-x------|
A|--9-9-9-9-9-9-9-9-22222222-66666666—-9-9-9-9-9-9-9-9------|
E|----------------------------------------------------------|

E|-----------------------------------|
B|-----------------------------------|
G|-4444~~~4444-66666666--------------|
D|-xxxx~~~xxxx-xxxxxxxx--------------|
A|-2222~~~2222-44444444--------------|
E|-----------------------------------|

Chorus x2 g1 and g2
E|---------------------------------------------------|
B|---------------------------------------------------|
G|-44444444------------------------------------------|
D|-44444444-44444444-2222~~-2222-44444444------------|
A|-22222222-44444444-2222~~-2222-44444444------------|
E|----------22222222-0000~~-0000-22222222------------|

Pre-Verse x4 g2
E|-------------------|
B|-------------------|
G|-----11------------|
D|--9-9--9-9---------|
A|-9-9----9----------|
E|-------------------|

Verse 2 g1
E|---------------------------------|
B|---------------------------------|
G|---------444~~~------------------|
D|-6666666-444~~~--6666666-222~~~--|
A|-6666666-222~~~--6666666-222~~~--|
E|-4444444—--------4444444-000~~~--|
Pm *******         *******

Verse 2 g2
E|--------------------------------------------|
B|---------7----------------------------------|
G|-----------444~~~---------------------------|
D|-----------444~~~-66666666-222~~~-----------|
A|-----------222~~~-66666666-222~~~-----------|
E|------------------44444444-000~~~-----------|
Pm                  ********

Pre-Chorus

Chorus

Bridge g1
E|--------------------------------------------------------------------|
B|--------------------------------------------------------------------|
G|--------4~~~--------4-------------4~~~------------------------------|
D|-6666-2-4~~~-6666-2-4-4~~~-6666-2-4~~~-6666-2~~~--4444444444444444--|
A|-6666-2-2~~~-6666-2-2-4~~~-6666-2-2~~~-6666-2~~~--4444444444444444--|
E|-4444-0------4444-0---2~~~-4444-0------4444-0~~~--2222222222222222--|
Pm ****        ****          ****        ***

Bridge g2
E|--------------------------------------------------|
B|--------------------------------------------------|
G|--------4~~~--------4-------------4~~~------------|
D|-6666-2-4~~~-6666-2-4-4~~~-6666-2-4~~~-6666-2~~~--|
A|-6666-2-2~~~-6666-2-2-4~~~-6666-2-2~~~-6666-2~~~--|
E|-4444-0------4444-0---2~~~-4444-0------4444-0~~~--|
Pm ****        ****          ****        ***

E|--------------------------------------------------------|
B|--------------------------------------------------------|
G|-11111111111111111111111111111111—-99999999-99998888----|
D|--x-x-x-x-x-x-x-x-x-x-x-x-x-x-x-x—-xxxxxxxx-xxxxxxxx----|
A|--9-9-9-9-9-9-9-9-9-9-9-9-9-9-9-9--77777777-77776666----|
E|--------------------------------------------------------|


Chorus (play this 1st time, then normal chorus 2nd time) g1 and g2
E|---------------------------------------------------|
B|---------------------------------------------------|
G|-44444444------------------------------------------|
D|-44444444-44444444-22222222-2222-44444444----------|
A|-22222222-44444444-22222222-2222-44444444----------|
E|----------22222222-00000000-0000-22222222----------|
Pm                            * *



==================================================================================
Song:The Girls a Straight Up Hustler
==================================================================================
Tuning: Standard

INTRO
GUITAR ONE

|-----------------------------------|
|-------8--8--8--8----3--3---3--3---|
|-----0--0--0--0-----0--0---0--0----|
|-----------------------------------|
|---7--7--6--6-----2--2---3--3------|
|-----------------------------------|

|------------------------------------|
|-------8--8--8--8----3--3--3--3--3--|
|-----0--0--0--0-----0--0--0--0--0---|
|------------------------------------|
|---7--7--6--6-----------------------|
|-----------------3--3---2--2--0-----|

VERSE 

GUITAR ONE:

|-----------------------------------|
|-------8--8--8--8----3--3---3--3---|
|-----0--0--0--0-----0--0---0--0----|
|-----------------------------------|
|---7--7--6--6-----2--2---3--3------|
|-----------------------------------|

|------------------------------------|
|-------8--8--8--8----3--3--3--3--3--|
|-----0--0--0--0-----0--0--0--0--0---|
|------------------------------------|
|---7--7--6--6-----------------------|
|-----------------3--3---2--2--0-----|

CONTINUE TWO OR THREE TIMES

GUITAR TWO:
DOES THE PLAYING A LITTLE DIFFERENT LISTEN TO THE SONG

|-----------------------------------|
|-------8--8--8--8----3--3---3--3---|
|-----0--0--0--0-----0--0---0--0----|
|-----------------------------------|
|---7--7--6--6-----2--2---3--3------|
|-----------------------------------|

|------------------------------------|
|-------8--8--8--8----3--3--3--3--3--|
|-----0--0--0--0-----0--0--0--0--0---|
|------------------------------------|
|---7--7--6--6-----------------------|
|-----------------3--3---2--2--0-----|

CONTINUE TWO OR THREE TIMES

ChoruS

GUITAR ONE: CLEAN

|--------------------------------------------|
|--------------------------------------[x2]--|
|------------7-7-7-7--5-5-5-5--7-7-7-7-------|
|---5-5-5-5--7-7-7-7--5-5-5-5--7-7-7-7-------|
|---5-5-5-5--5-5-5-5--3-3-3-3--5-5-5-5-------|
|---3-3-3-3----------------------------------|

GUITAR TWO DISTORTED

|--------------------------------------------|
|--------------------------------------[x2]--|
|------------7-7-7-7--5-5-5-5--7-7-7-7-------|
|---5-5-5-5--7-7-7-7--5-5-5-5--7-7-7-7-------|
|---5-5-5-5--5-5-5-5--3-3-3-3--5-5-5-5-------|
|---3-3-3-3----------------------------------|


INTERLUDE

PART ONE:

GUITAR ONE
|-----------------------------------|
|-----8--------8-------8-------8----|
|---0---0----0---0---0---0---0---0--|
|-----------------------------------|
|-7--------6------------------------|
|------------------7-------8--------|

|---------------------|
|-----8--------8------|
|---0---0----0---0----|
|---------------------|
|-7--------6----------|
|------------------3--|

PART TWO:

GUITAR ONE: DISTORTED

|-----------------------------------------------|
|-----------------------------------------------|
|---9-9-9-9--12-12-12-12--5-5-5-5--12-12-12-12--|
|---9-9-9-9---x--x--x--x--5-5-5-5---x--x--x--x--|
|---7-7-7-7--10-10-10-10--7-7-7-7--10-10-10-10--|
|-----------------------------------------------|


|--------------------------------------------|
|--------------------------------------------|
|------------7-7-7-7---------------7-7-7-7---|
|---9-9-9-9--x-x-x-x--10-10-10-10--x-x-x-x---|
|---9-9-9-9--5-5-5-5--10-10-10-10--5-5-5-5---|
|---7-7-7-7------------8--8--8--8------------|


|-----------------------------------------------------------|
|-----------------------------------------------------------|
|---9-9-9-9--12-12-12-12--5-5-5-5--12-12-12-12--------------|
|---9-9-9-9---x--x--x--x--5-5-5-5---x--x--x--x--5-5--5-5-5--|
|---7-7-7-7--10-10-10-10--7-7-7-7--10-10-10-10--5-5--5-5-5--|
|-----------------------------------------------3-3--3-3-3--|

GUITAR TWO: DISTORTED

|------------------------------------|
|-----------8-8-8-8-------8-8-8-8----|
|---9-9--------------9-9-------------|
|---9-9--------------9-9-------------|
|---7-7--------------6-6-------------|
|------------------------------------|


|--------------------------------------------|
|--------------------------------------------|
|------------3-3-3-3-----------3-3-3-3-------|
|---9-9-9-9-----------5-5-5-5----------------|
|---9-9-9-9-----------5-5-5-5----------------|
|---7-7-7-7-----------7-7-7-7----------------|


VERSE:

JUST THE POWER CHORDS OF THE INTERLUDE ALL MIXED INTO THE VERSE

|-------------------------|
|-------------------------|
|---9-9---9-9-------------|
|---9-9---9-9-------------|
|---7-7---6-6-------------|
|-------------------------|


|---------------------------------|
|---------------------------------|
|---------------------------------|
|---9-9-9--5-5-5-5----------------|
|---9-9-9--5-5-5-5----------------|
|---7-7-7--7-7-7-7----------------|



ChoruS

GUITAR ONE: CLEAN

|--------------------------------------------|
|--------------------------------------[x2]--|
|------------7-7-7-7--5-5-5-5--7-7-7-7-------|
|---5-5-5-5--7-7-7-7--5-5-5-5--7-7-7-7-------|
|---5-5-5-5--5-5-5-5--3-3-3-3--5-5-5-5-------|
|---3-3-3-3----------------------------------|

GUITAR TWO DISTORTED

|--------------------------------------------|
|--------------------------------------[x2]--|
|------------7-7-7-7--5-5-5-5--7-7-7-7-------|
|---5-5-5-5--7-7-7-7--5-5-5-5--7-7-7-7-------|
|---5-5-5-5--5-5-5-5--3-3-3-3--5-5-5-5-------|
|---3-3-3-3----------------------------------|



BREAKDOWN:


|------------------------------------------------|
|------------------------------------------[x5]--|
|--9-9-9-9--7-7-7-7------------------------------|
|--9-9-9-9--7-7-7-7--9-9-9-9--10-10-10-10--------|
|--7-7-7-7--5-5-5-5--7-7-7-7--10-10-10-10--------|
|--------------------7-7-7-7---8--8--8--8--------|


ChoruS

GUITAR ONE: CLEAN

|--------------------------------------------|
|--------------------------------------[x2]--|
|------------7-7-7-7--5-5-5-5--7-7-7-7-------|
|---5-5-5-5--7-7-7-7--5-5-5-5--7-7-7-7-------|
|---5-5-5-5--5-5-5-5--3-3-3-3--5-5-5-5-------|
|---3-3-3-3----------------------------------|

GUITAR TWO DISTORTED

|--------------------------------------------|
|--------------------------------------[x2]--|
|------------7-7-7-7--5-5-5-5--7-7-7-7-------|
|---5-5-5-5--7-7-7-7--5-5-5-5--7-7-7-7-------|
|---5-5-5-5--5-5-5-5--3-3-3-3--5-5-5-5-------|
|---3-3-3-3----------------------------------|




ENDING:

GUITAR ONE: CLEAN

|-----------------------------------|
|-------8--8--8--8----3--3---3--3---|
|-----0--0--0--0-----0--0---0--0----|
|-----------------------------------|
|---7--7--6--6-----2--2---3--3------|
|-----------------------------------|

|------------------------------------|
|-------8--8--8--8----3--3--3--3--3--|
|-----0--0--0--0-----0--0--0--0--0---|
|------------------------------------|
|---7--7--6--6-----------------------|
|-----------------3--3---2--2--0-----|




==================================================================================
Song:Jasey Rae
==================================================================================
Tuning: DADGBe

intro
Gtr I
|-------------------------------------------------------------|
|--15p0-----------15p0------------15p0------------------------|
|------14p0--12p0------14p0--12p0------14p0-------------------|
|-------------------------------------------------------------|3x
|-------------------------------------------------------------|
|-------------------------------------------------------------|

|-------------------------------------------------------------|
|--15p0-----------15p0------------15--------------------------|
|------14p0--12p0------14p0--12p0-----------------------------|
|-------------------------------------------------------------|3x
|-------------------------------------------------------------|
|-------------------------------------------------------------|

|-12p0----------12p0-----------12p0---------------------------|
|------15p0----------15p0-----------15p0----------------------|
|----------14p0-----------14p0--------------------------------|2x
|-------------------------------------------------------------|
|-------------------------------------------------------------|
|-------------------------------------------------------------|

|-14p0----------14p0-----------14p0---------------------------|
|------15p0----------15p0----------15p0-----------------------|
|----------14p0-----------14p0--------------------------------|
|-------------------------------------------------------------|1x
|-------------------------------------------------------------|
|-------------------------------------------------------------|

|-12p0----------12p0-----------12p0---------------------------|
|------15p0----------15p0-----------15p0----------------------|
|----------14p0-----------14p0--------------------------------|
|-------------------------------------------------------------|2x
|-------------------------------------------------------------|
|-------------------------------------------------------------|

|-------------------------------------------------------------|
|-15151515151515151515151515/---------------------------------|
|-14141414141414141414141414/---------------------------------|
|-------------------------------------------------------------|
|-------------------------------------------------------------|
|-------------------------------------------------------------|

GtrII
|--------------------------------------------------------------------------|
|--------------------------------------------------------------------------|
|--------------------------------------------------------------------------|
|-5~~~-----4x---000000000000000-55555555-44444444-00000000-9999-7777-5~----|
|-5~~~-----4x---000000000000000-55555555-44444444-00000000-9999-7777-5~----|
|-5~~~-----4x---000000000000000-55555555-44444444-00000000-9999-7777-5~----|


|-------------------------------------------------------------|
|-------------------------------------------------------------|
|-------------------------------------------------------------|
|-~~~~~~~~~~~~~~~~~~~-5-0-0-0---------------------------------|
|-~~~~~~~~~~~~~~~~~~~-5-0-0-0---------------------------------|
|-~~~~~~~~~~~~~~~~~~~-5-0-0-0---------------------------------|
                        * * *

verse
Gtr I & II
|-------------------------------------------------------------|
|-------------------------------------------------------------|
|-------------------------------------------------------------|
|-0~----------------------------------------------------------|
|-0~----------------------------------------------------------|
|-0~----------------------------------------------------------|

Gtr I
|-------------------------------------------------------------|
|-------------------------------------------------------------|
|-------------14-14---------------14-14-----------------------|
|-11-12-11-12--------11-12-11-12-----------11-12-11-12--------|
|-------------------------------------------------------------|
|-------------------------------------------------------------|
  *  *  *  *  *   *   *  *  *  *  *   *   *  *  *  *  * 

Gtr I & II
|-------------------------------------------------------------|
|-------------------------------------------------------------|
|-------------------------------------------------------------|
|-9-9-9-9-9-9-9-9-9-9-9-9-9-7-7-7-7-7-7-7-7-7-7-7-7-7---------|
|-9-9-9-9-9-9-9-9-9-9-9-9-9-7-7-7-7-7-7-7-7-7-7-7-7-7---------|
|-9-9-9-9-9-9-9-9-9-9-9-9-9-7-7-7-7-7-7-7-7-7-7-7-7-7---------|
  * * * * * * * * * * * * * * * * * * * * * * * * * * 

Gtr I
|-------------------------------------------------------------|
|-------------------------------------------------------------|
|-------------------------------------------------------------|
|-/7~--4~-----7~--------------------5~--4~--------------------|
|----------------7~------4~--5~-----------------7~--5~--------|
|-------------------------------------------------------------|

GtrII
|-------------------------------------------------------------|
|-------------------------------------------------------------|
|-------------------------------------------------------------|
|-55-555------77-777-------99-9999------77-7777------5~-------|
|-55-555------77-777-------99-9999------77-7777------5~-------|
|-55-555------77-777-------99-9999------77-7777------5~-------|
  ** ***      ** ***       ** ****      ** ****      *

Chorus-
Gtr I
|-----------------------------|--------------------------------|
|-----------------------------|--------------------------------|
|-77777777-9999999-777777777~-|-777777-9999999-77777777777~----|
|-xxxxxxxx-xxxxxxx-xxxxxxxxx--|-xxxxxx-xxxxxxx-xxxxxxxxxxx-----|
|-55555555-7777777-555555555~-|-555555-7777777-55555555555~----|
|-----------------------------|--------------------------------|


Gtr II
|------------------------------------------|
|------------------------------------------|
|------------------------------------------|
|-000000000-7777777-5555555~~~~------------|2x
|-000000000-7777777-5555555~~~~------------|
|-000000000-7777777-5555555~~~~------------|

THEN..
Gtr I
|-------------------------------------------------------------|
|--15p0-----------15p0------------15p0------------------------|
|------14p0--12p0------14p0--12p0------14p0-------------------|
|-------------------------------------------------------------|3x
|-------------------------------------------------------------|
|-------------------------------------------------------------|

GtrII
|-------------------------------------------------------------|
|-------------------------------------------------------------|
|-------------------------------------------------------------|
|-0~----------------------------------------------------------|
|-0~----------------------------------------------------------|
|-0~----------------------------------------------------------|


verse2
Gtr I
|-------------------------------------------------------------|
|-------------------------------------------------------------|
|-4~--------6~---------4~------------2~-----------------------|
|-x---------x----------x-------------x------------------------|
|-2~--------4~---------2~------------0~-----------------------|
|-------------------------------------------------------------|


Gtr II
|------------------------------------------|
|------------------------------------------|
|------------------------------------------|
|-555555555-77777777-99999999-77777777-----|
|-555555555-77777777-99999999-77777777-----|
|-555555555-77777777-99999999-77777777-----|



Gtr I
|----------------------------------------------------------------------------|
|----------------------------------------------------------------------------|
|----------14-----14-----14---------------------14-----14-----14-------------|
|-12141214---12-14--12-14--12141214--11-14-11-14--11-14--11-14--11-14-11-14--|
|----------------------------------------------------------------------------|
|----------------------------------------------------------------------------|
  * * * *  * *  *  * * * * * * * *   *   *  *  * * *  * * *  * * *  * *  * 

|-------------------------------------------------------------|
|-------------------------------------------------------------|
|-44444444-6666666----7~--------------9~----------------------|
|-xxxxxxxx-xxxxxxx----x---------------x-----------------------|
|-22222222-4444444----5~--------------7~----------------------|
|-------------------------------------------------------------|

Gtr II
|---------------------------|
|---------------------------|
|---------------------------|
|-555555555-77777777--------|
|-555555555-77777777--------|
|-555555555-77777777--------|
  ********* ********
|-----------------------------|
|-----------------------------|
|-----------------------------|
|---99999999-77777777--5~-7~--|
|---99999999-77777777--5~-7~--|
|---99999999-77777777--5~-7~--|

Repeat chorus



Bridge

Gtr I
|-xx-xx-xx-xx--xx-xx-xx-xx-xx-xx-xx-xx-xx-xx-xx-xx--xx-xx-xx-xx-xx-xx-xx-xx-|
|-xx-xx-xx-xx--xx-xx-xx-xx-xx-xx-xx-xx-xx-xx-xx-xx--xx-xx-xx-xx-xx-xx-xx-xx-|
|-77-77-77-77--77-77-77-77-77-77-77-77-77-77-77-77--77-77-77-77-77-77-77-77-|
|-77-77-77-77--77-77-77-77-77-77-77-77-77-77-77-77--77-77-77-77-77-77-77-77-|
|-55-55-55-55--44-44-44-44-99-99-77-77-55-55-55-55--44-44-44-44-77-77-77-77-|
|-55-55-55-55--44-44-44-44-99-99-77-77-55-55-55-55--44-44-44-44-77-77-77-77-|

Gtr I
|-xx-xx-xx-xx--xx-xx-xx-xx-xx-xx-xx-xx-xx-xx-xx-xx--xx-xx-xx-xx-xx-xx-xx-xx-|
|-xx-xx-xx-xx--xx-xx-xx-xx-xx-xx-xx-xx-xx-xx-xx-xx--xx-xx-xx-xx-xx-xx-xx-xx-|
|-77-77-77-77--77-77-77-77-77-77-77-77-77-77-77-77--77-77-77-77-77-77-77-77-|
|-77-77-77-77--77-77-77-77-77-77-77-77-77-77-77-77--77-77-77-77-77-77-77-77-|
|-55-55-55-55--44-44-44-44-99-99-99-99-55-55-55-55--44-44-44-44-77-77-77-77-|
|-55-55-55-55--44-44-44-44-99-99-99-99-55-55-55-55--44-44-44-44-77-77-77-77-|

Gtr II
|--------------------------------------------------------------------------|
|--------------------------------------------------------------------------|
|--------------------------------------------------------------------------|
|-55555555-44444444-9999999999999999-55555555-44444444-7777777777777777----|
|-55555555-44444444-9999999999999999-55555555-44444444-7777777777777777----|
|-55555555-44444444-9999999999999999-55555555-44444444-7777777777777777----|
  ******** ******** **************** ******** ******** ****************
solo-
Gtr I
|-------------------------------------------------------------|
|-------------------------------------------------------------|
|-------14--------14--------14-------14---------14--------14--|
|-11-12-----11-12-----11-12-----11-12-----11-12-----11-12-----|3x
|-------------------------------------------------------------|
|-------------------------------------------------------------|

|-------------------------------------------------------------|
|-------------------------------------------------------------|
|-------14-14-12-12-11-11-------------------------------------|
|-11-12------------------14-14--------------------------------|
|-------------------------------------------------------------|
|-------------------------------------------------------------|


|-------------------------------------------------------------|
|-------------------------------------------------------------|
|-------14--------14--------14-------14---------14--------14--|
|-11-12-----11-12-----11-12-----11-12-----11-12-----11-12-----|3x
|-------------------------------------------------------------|
|-------------------------------------------------------------|

|-------------------------------------------------------------|
|-------------------------------------------------------------|
|-14tr---16tr---18tr----19tr~~~-------------------------------|
|-------------------------------------------------------------|
|-------------------------------------------------------------|
|-------------------------------------------------------------|

GtrII

|--------------------------------------------------------------------|
|--------------------------------------------------------------------|
|--------------------------------------------------------------------|
|-55555555-44444444-9999999999999-55555555-44444444-77777777777777~--|
|-55555555-44444444-9999999999999-55555555-44444444-77777777777777~--|
|-55555555-44444444-9999999999999-55555555-44444444-77777777777777~--|

then
Gtr I
|--------------------------------------------------------|
|--------------------------------------------------------|
|----------------------77777777----4-4-4-----2-2-2-2-2---|
|----------------------77777777----4-4-4-----2-2-2-2-2---|
|----------------------55555555----2-2-2-----0-0-0-0-0---|
|--------------------------------------------------------|

GtrII
|------------------------------------------------------|
|------------------------------------------------------|
|--------------------------------4-4-4-----2-2-2-2-2---|
|-55555555-44444444---00000000---4-4-4-----2-2-2-2-2---|
|-55555555-44444444---00000000---2-2-2-----0-0-0-0-0---|
|-55555555-44444444---00000000-------------------------|



Gtr I
|-------------------------------------------------------------|
|-------------------------------------------------------------|
|-------14--------14--------14-------14---------14--------14--|
|-11-12-----11-12-----11-12-----11-12-----11-12-----11-12-----|continued til 
|-------------------------------------------------------------|fade
|-------------------------------------------------------------|



GtrII
|------------------------------------------------------|
|------------------------------------------------------|
|--------------------------------4-4-4-----2-2-2-2-2---|
|-55555555-44444444---00000000---4-4-4-----2-2-2-2-2---|
|-55555555-44444444---00000000---2-2-2-----0-0-0-0-0---|
|-55555555-44444444---00000000-------------------------|


end
|------------------------------------------------------|
|------------------------------------------------------|
|------------------------------------------------------|
|-5-000-----0~-----------------------------------------|
|-5-000-----0~-----------------------------------------|
|-5-000-----0~-----------------------------------------|




==================================================================================
Song:The Party Scene
==================================================================================
Tuning:EADGBe


Intro
e|----------------------------------------|
B|----------------------------------------|
G|---------22222222---------22222222------|
D|-4/6-4/6-22222222-4/6-4/6-22222222------|
A|-2/4-2/4-00000000-2/4-2/4-00000000------|repeat a few times
E|----------------------------------------|

e|----------------------------------|
B|----------------------------------|
G|----------------------------------|
D|--------44------------------------|
A|77--22--22--66--------------------|x4
E|55--00------44--------------------|
  **  **  **  **

Pre-Chorus
e|--------------------------------------------|
B|--------------------------------------------|
G|22222222----------4444444444444444----------|
D|22222222-22222222-4444444444444444----------|
A|00000000-22222222-2222222222222222----------|x2
E|---------00000000---------------------------|

Chorus
e|------------------------|   |------------------------|
B|------------------------|   |------------------------|
G|------------------------|   |----------2-------------|
D|666-222-----444---------|x3 |-4/6-4/6--2-------------|
A|444-000-222-222---------|   |-2/4-2/4--0-------------|
E|--------000-------------|   |------------------------|

Verse

e|------------------------------------------------|
B|------------------------------------------------|
G|------------------------------------------------|
D|66666666-99999999-2222222222222222--------------|
A|44444444-77777777-0000000000000000--------------|x2
E|------------------------------------------------|
  ******** ******** ****************

play pre-chorus
play chorus
For the bridge, play the second verse

Solo
e|----------------------------------------------------------|
B|----------------------------------------------------------|
G|--13------------------------------------------------------|
D|-----13-14-14-13-14-16-14-13-14-13/11-13-11-9~------------|
A|----------------------------------------------------------|
E|----------------------------------------------------------|

e|----------------------------------------------------------|
B|-----12---------------------------------------------------|
G|-------14-13-14-13-11-13-11-9-11-9-8-9--------------------|
D|----------------------------------------------------------|
A|----------------------------------------------------------|
E|----------------------------------------------------------|

e|----------------------------------------------------------|
B|--------------9----9-10-9-10-12---------------------------|
G|--8-9-11-9-11---11----------------------------------------|
D|----------------------------------------------------------|
A|----------------------------------------------------------|
E|----------------------------------------------------------|

e|-----------------------12--------|
B|---9h10p9-12--9h10p9-------------|
G|---------------------9-----------|x3
D|---------------------------------|
A|---------------------------------|
E|---------------------------------|

e|--------------------|
B|9-10-12-------------|
G|--------------------|
D|--------------------|
A|--------------------|
E|--------------------|

Play chorus and then the second part of the intro






==================================================================================
Song: Running From Lions
==================================================================================
Tuning: EADGBe
Tuning: Standard

Intro 1
e|--------------------|
B|--------------------|
G|-666-7-XX-----------|
D|-666-7-XX-777-9999--| x4
A|-444-5-XX-777-9999--|
E|----------555-7777--|

Intro 2
e|--------------------|
B|-9-9-11-11----------|
G|----------9-9-11-11-| x4
D|--------------------|
A|--------------------|
E|--------------------|

Intro 3
e|------------|
B|-12-9-10--9-|
G|--------11--| x4
D|------------|
A|------------|
E|------------|
VERSE
e|--------------|
B|--------------|
G|-6----6/7-----|
D|-6----6/7-----|      <------FIGURE OUT STRUMMING
A|-4----4/5-----|
E|--------------|

CHORUS
e|-------------------------------------------------------|
B|-------------------------------------------------------|
G|-999999999999-666666666666-444444444444-222222-444444--|
D|-999999999999-666666666666-444444444444-222222-444444--|
A|-777777777777-444444444444-222222222222-000000-222222--|
E|-------------------------------------------------------|

Interlude
e----------------------------------------------------------------------|
B----------------------------------------------------------------------|
G-9---------6------------------------9------------6--666---------------|
D-9--  X12--6 X12--6----------8------9 X12--------6--666---------------|
A-7---------4------6 X12------8 X12 -7------------4--444---------------|
E------------------4----------6----------------------------------------|
  Pm.....................................





==================================================================================
Song:Lullabies
==================================================================================
Tuning: EADGBe
Intro/Bridge
e|-----------------|
B|-----------------|
G|----8-----13-----|    X 4
D|----9-x8--14-x8--|
A|----7-----12-----|
E|-----------------|

Verse
e|------------------------------|
B|------------------------------|
G|----8-----8-----13-----13-----|    X 4
D|----9-x6--9-x8--14-x6--14-x8--|
A|----7-----7-----12-----12-----|
E|------------------------------|

listen to the song for the strumming patterns

Chorus
e|--------------------|
B|--------------------|
G|----8--------2------|
D|----9-x12----2-x12--|
A|----7--------0------|
E|--------------------|

e|---------------------------------|
B|---------------------------------|
G|----8--------2-------1-----2-----|
D|----9-x12----2-x6----2-x3--4-x3--|
A|----7--------0-------0-----0-----|
E|---------------------------------|

e|--------------------|
B|--------------------|
G|----8--------2------|
D|----9-x12----2-x12--|
A|----7--------0------|
E|--------------------|

e|----------------------------------------------|
B|----------------------------------------------|
G|----8---------14------13------11------9-------|
D|----9-x12-----X--x4---X--x4---X--x4---X--x4---|
A|----7---------12------11------9-------7-------|
E|----------------------------------------------|

Intro/Bridge (only x2)
Verse (still x4)

Post Chorus 

e|---------------------------|
B|---------------------------|
G|----x-------x------x-------|   x2
D|----4-------6------7-------|
A|----4-x10---6-x2---7-x20---|
E|----2-------4------5-------|

That is the whole EP hope this helps you :)

HUSTLER!
comments
We did not receive enough feedback on this tab! Please rate:
print report bad tab
1 2 3 4 5
I want to post or [tab]
guest
You may want to rate the tab now too:
select rating
Please do not post tabs as comments. Select "correction" instead!