Oops, an error
Loading. Please wait.

Somewhere In Neverland Tab

ver3
ver3

Whole song

More versions @911Tabs.com
17,740 views 311 this week
no commentswrite comment
1 2 3 4 5
excellent!
x 9
Autoscroll
+/-
esc
set tempo
stop
Contributor
WARNING: You are trying to view
                                    content from Ultimate-Guitar.com
                                    in an unauthorized application,
                                    which is prohibited.

                                    Please use an official Ultimate
                                    Guitar Tabs application for iPhone,
                                    iPad or Android to access legitimate
                                    chords, guitar, bass, and drum tabs
                                    from Ultimate-Guitar.com database.

                                    Type "ultimate guitar tabs" in Apple
                                    App Store's or Android Market's
                                    search to find the application.
All Time Low - Somewhere In Neverland Guitar Tab
from Track 4 of Don't Panic (2012)
by Scalar719

Tuning: Drop D


[Intro]

Guitar 1 (lead)
e|---------------------------------------------------------------------------|
B|---------------------------------------------------------------------------|
G|--8-8----12-12-12\10-10----10----12-12-12\7-7------------------------------|
D|--x-x----x--x--x-\x--x-----x-----x--x--x-\x-x------------------------------|
A|--6-6----10-10-10\8--8-----8-----10-10-10\5-5------------------------------|
D|---------------------------------------------------------------------------|

e|---------------------------------------------------------------------------|
B|---------------------------------------------------------------------------|
G|--5-5----12-12-12\10-10----8---12-12-12/13-13\12---------------------------|
D|--x-x----x--x--x-\x--x-----x---x--x--x-/x--x-\x----------------------------|
A|--3-3----10-10-10\8--8-----6---10-10-10/11-11\10---------------------------|
D|---------------------------------------------------------------------------|

e|---------------------------------------------------------------------------|
B|---------------------------------------------------------------------------|
G|--8-8----12-12-12\10-10----10----12-12-12\7-7------------------------------|
D|--x-x----x--x--x-\x--x-----x-----x--x--x-\x-x------------------------------|
A|--6-6----10-10-10\8--8-----8-----10-10-10\5-5------------------------------|
D|---------------------------------------------------------------------------|

e|---------------------------------------------------------------------------|
B|---------------------------------------------------------------------------|
G|--5-5----12-12-12\10-10\8--------------------------------------------------|
D|--x-x----x--x--x-\x--x-\x--------------------------------------------------|
A|--3-3----10-10-10\8--8-\6--------------------------------------------------|
D|---------------------------------------------------------------------------|


Guitar 2 (Rhythm)
e|---------------------------------------------------------------------------|
B|---------------------------------------------------------------------------|
G|-8-8-8-8-8------------------------5-5-5-5-5--------------------------------|
D|-8-8-8-8-8-5-6-8-8-8-8-8-8-8-8-8--5-5-5-5-5-3-5-6-6-6-6-6-6-6-6-6----------|
A|-6-6-6-6-6-5-6-8-8-8-8-8-8-8-8-8--3-3-3-3-3-3-5-6-6-6-6-6-6-6-6-6----------|
D|-----------5-6-8-8-8-8-8-8-8-8-8------------3-5-6-6-6-6-6-6-6-6-6----------|

e|---------------------------------------------------------------------------|
B|---------------------------------------------------------------------------|
G|-8-8-8-8-8------------------------5-5-5-5-5--------------------------------|
D|-8-8-8-8-8-5-6-8-8-8-8-8-8-8-8-8--5-5-5-5-5-3-5-6\-------------------------|
A|-6-6-6-6-6-5-6-8-8-8-8-8-8-8-8-8--3-3-3-3-3-3-5-6\-------------------------|
D|-----------5-6-8-8-8-8-8-8-8-8-8------------3-5-6\-------------------------|


[Verse]

Guitar 1 (lead, Clean)

(empty for 4 bars)

e|---------------------------------------------------------------------------|
B|----4--4-----3---4--3-----4--4-----3---4--3--------------------------------|
G|-3---3--3--3---3--3---3----3--3--3---3--3---3------------------------------|
D|---------------------------------------------------------------------------|
A|---------------------------------------------------------------------------|
D|---------------------------------------------------------------------------|

e|---------------------------------------------------------------------------|
B|----4--4-----3---4--3-----4--4-----3---4--3--------------------------------|
G|-----3--3--3---3--3---3----3--3--3---3--3---3------------------------------|
D|---------------------------------------------------------------------------|
A|---------------------------------------------------------------------------|
D|---------------------------------------------------------------------------|


Guitar 2 (Rhythm)
e|---------------------------------------------------------------------------|
B|---------------------------------------------------------------------------|
G|-8-8-8-8-8------------------------5-5-5-5-5--------------------------------|
D|-8-8-8-8-8-5-6-8-8-8-8-8-8-8-8-8--5-5-5-5-5-3-5-6-6-6-6-6-6-6-6-6----------|
A|-6-6-6-6-6-5-6-8-8-8-8-8-8-8-8-8--3-3-3-3-3-3-5-6-6-6-6-6-6-6-6-6----------|
D|-----------5-6-8-8-8-8-8-8-8-8-8------------3-5-6-6-6-6-6-6-6-6-6----------|
[pm................................................................]

e|---------------------------------------------------------------------------|
B|---------------------------------------------------------------------------|
G|-8-8-8-8-8------------------------5-5-5-5-5--------------------------------|
D|-8-8-8-8-8-5-6-8-8-8-8-8-8-8-8-8--5-5-5-5-5-3-5-6-6-6-6-6-6-6-6-6----------|
A|-6-6-6-6-6-5-6-8-8-8-8-8-8-8-8-8--3-3-3-3-3-3-5-6-6-6-6-6-6-6-6-6----------|
D|-----------5-6-8-8-8-8-8-8-8-8-8------------3-5-6-6-6-6-6-6-6-6-6----------|
[pm................................................................]

e|---------------------------------------------------------------------------|
B|---------------------------------------------------------------------------|
G|-8-8-8-8-8------------------------5-5-5-5-5--------------------------------|
D|-8-8-8-8-8-5-6-8-8-8-8-8-8-8-8-8--5-5-5-5-5-3-5-6-6-6-6-6-6-6-6-6----------|
A|-6-6-6-6-6-5-6-8-8-8-8-8-8-8-8-8--3-3-3-3-3-3-5-6-6-6-6-6-6-6-6-6----------|
D|-----------5-6-8-8-8-8-8-8-8-8-8------------3-5-6-6-6-6-6-6-6-6-6----------|
[pm................................................................]

e|---------------------------------------------------------------------------|
B|---------------------------------------------------------------------------|
G|-8-8-8-8-8------------------------5-5-5-5-5--------------------------------|
D|-8-8-8-8-8-5-6-8-8-8-8-8-8-8-8-8--5-5-5-5-5-3-5-6\-------------------------|
A|-6-6-6-6-6-5-6-8-8-8-8-8-8-8-8-8--3-3-3-3-3-3-5-6\-------------------------|
D|-----------5-6-8-8-8-8-8-8-8-8-8------------3-5-6\-------------------------|
[pm..........................................]


[Pre-Chorus]

Guitar 1 (lead, Clean)
e|---------------------------------------------------------------------------|
B|--4--3--4--3--4--3--4--3--4--3--4--3--4--3--4--3---------------------------|
G|---3--3--3--3--3--3--3--3--3--3--3--3--3--3--3--3--------------------------|
D|----------------------------------------------------------xx-xx------------|
A|----------------------------------------------------------xx-xx------------|
D|----------------------------------------------------------xx-xx------------|


Guitar 2 (Rhythm)
e|---------------------------------------------------------------------------|
B|---------------------------------------------------------------------------|
G|---------------------------------------------------------------------------|
D|------------------------6\------------------xx-xx--------------------------|
A|------------------------6\------------------xx-xx--------------------------|
D|------------------------6\------------------xx-xx--------------------------|


[Chorus]

Guitar 1 (lead)
e|---------------------------------------------------------------------------|
B|---------------------------------------------------------------------------|
G|-8-8-8-8-8------------------------5-5-5-5-5--------------------------------|
D|-8-8-8-8-8-5-6-8-8-8-8-8-8-8-8-8--5-5-5-5-5-3-5-6-6-6-6-6-6-6-6-6----------|
A|-6-6-6-6-6-5-6-8-8-8-8-8-8-8-8-8--3-3-3-3-3-3-5-6-6-6-6-6-6-6-6-6----------|
D|-----------5-6-8-8-8-8-8-8-8-8-8------------3-5-6-6-6-6-6-6-6-6-6----------|

e|---------------------------------------------------------------------------|
B|---------------------------------------------------------------------------|
G|-8-8-8-8-8------------------------5-5-5-5-5--------------------------------|
D|-8-8-8-8-8-5-6-8-8-8-8-8-8-8-8-8--5-5-5-5-5-3-5-6\------------xxx-xxx-xxx--|
A|-6-6-6-6-6-5-6-8-8-8-8-8-8-8-8-8--3-3-3-3-3-3-5-6\------------xxx-xxx-xxx--|
D|-----------5-6-8-8-8-8-8-8-8-8-8------------3-5-6\------------xxx-xxx-xxx--|

e|---------------------------------------------------------------------------|
B|-11----------11-------------------11----------------------13---------------|
G|-------12-10----10-12-10----------------------------12----------12-13-12---|
D|-------------------------13-12-10----12-13-12-12-10----13----13----------13|
A|----13---------------------------------------------------------------------|
D|---------------------------------------------------------------------------|

e|---------------------------------------------------------------------------|
B|-13----------------------11----------------------11----------------------13|
G|-------12----------12-10-------12-10-------------------10----------12------|
D|----13----13-13----------------------12----12-------12----12-13-10----13---|
A|----------------13----------13----------13----13---------------------------|
D|---------------------------------------------------------------------------|

e|------------------------|
B|-13---------------------|
G|-------12-13------------|
D|----13------------------|
A|------------------------|
D|------------------------|


Guitar 2 (Rhythm)
e|---------------------------------------------------------------------------|
B|---------------------------------------------------------------------------|
G|-8-8-8-8-8------------------------5-5-5-5-5--------------------------------|
D|-8-8-8-8-8-5-6-8-8-8-8-8-8-8-8-8--5-5-5-5-5-3-5-6-6-6-6-6-6-6-6-6----------|
A|-6-6-6-6-6-5-6-8-8-8-8-8-8-8-8-8--3-3-3-3-3-3-5-6-6-6-6-6-6-6-6-6----------|
D|-----------5-6-8-8-8-8-8-8-8-8-8------------3-5-6-6-6-6-6-6-6-6-6----------|


e|---------------------------------------------------------------------------|
B|---------------------------------------------------------------------------|
G|-8-8-8-8-8------------------------5-5-5-5-5--------------------------------|
D|-8-8-8-8-8-5-6-8-8-8-8-8-8-8-8-8--5-5-5-5-5-3-5-6\------------xxx-xxx-xxx--|
A|-6-6-6-6-6-5-6-8-8-8-8-8-8-8-8-8--3-3-3-3-3-3-5-6\------------xxx-xxx-xxx--|
D|-----------5-6-8-8-8-8-8-8-8-8-8------------3-5-6\------------xxx-xxx-xxx--|

e|---------------------------------------------------------------------------|
B|---------------------------------------------------------------------------|
G|-8-8-8-8-8------------------------5-5-5-5-5--------------------------------|
D|-8-8-8-8-8-5-6-8-8-8-8-8-8-8-8-8--5-5-5-5-5-3-5-6-6-6-6-6-6-6-6-6----------|
A|-6-6-6-6-6-5-6-8-8-8-8-8-8-8-8-8--3-3-3-3-3-3-5-6-6-6-6-6-6-6-6-6----------|
D|-----------5-6-8-8-8-8-8-8-8-8-8------------3-5-6-6-6-6-6-6-6-6-6----------|

e|---------------------------------------------------------------------------|
B|---------------------------------------------------------------------------|
G|-8-8-8-8-8------------------------5-5-5-5-5--------------------------------|
D|-8-8-8-8-8-5-6-8-8-8-8-8-8-8-8-8--5-5-5-5-5-3-5-6\-------------------------|
A|-6-6-6-6-6-5-6-8-8-8-8-8-8-8-8-8--3-3-3-3-3-3-5-6\-------------------------|
D|-----------5-6-8-8-8-8-8-8-8-8-8------------3-5-6\-------------------------|


(Replay first half of Intro)

(Replay Verse)

(Replay Pre-Chorus)

(Replay Chorus)


[Bridge]

Guitar 1 (lead, clean)
e|-----------------------------------3---------------------------------------|
B|---------4-------3---4---3-------3---3-4-3-4---4---4---3-------------------|
G|-----3-------3-3---3---3---4---4-------------5---5---3---3-----------------|
D|-6-6---6---6-----------------5---------------------------------------------|
A|---------------------------------------------------------------------------|
D|---------------------------------------------------------------------------|

e|-----------------------------------3---------------------------------------|
B|---------4-------3---4---3-------3---3-4-3-4---4---4---3-------------------|
G|-----3-------3-3---3---3---4---4-------------5---5---3---3-----------------|
D|-6-6---6---6-----------------5---------------------------------------------|
A|---------------------------------------------------------------------------|
D|---------------------------------------------------------------------------|

e|---------------------------------------------------------------------------|
B|--4--3--4--3--4--3--4--3--4--3--4--3--4--3--4--3---------------------------|
G|---3--3--3--3--3--3--3--3--3--3--3--3--3--3--3--3--------------------------|
D|----------------------------------------------------------xx-xx------------|
A|----------------------------------------------------------xx-xx------------|
D|----------------------------------------------------------xx-xx------------|


Guitar 2 (Rhythm)
e|---------------------------------------------------------------------------|
B|---------------------------------------------------------------------------|
G|---------------------------------------------------------------------------|
D|-6-----------8-------------9-------------10------8-------------------------|
A|-6-----------8-------------9-------------10------8-------------------------|
D|-6-----------8-------------9-------------10------8-------------------------|

e|---------------------------------------------------------------------------|
B|---------------------------------------------------------------------------|
G|---------------------------------------------------------------------------|
D|-666666666666-88888888888888-99999999999999-1010101010101010-88888888888888|
A|-666666666666-88888888888888-99999999999999-1010101010101010-88888888888888|
D|-666666666666-88888888888888-99999999999999-1010101010101010-88888888888888|
[pm..........................................................................]

e|---------------------------------------------------------------------------|
B|---------------------------------------------------------------------------|
G|---------------------------------------------------------------------------|
D|--------------6\----------------------------6\---------------xx-xx---------|
A|--------------6\----------------------------6\---------------xx-xx---------|
D|--------------6\----------------------------6\---------------xx-xx---------|



[Final Chorus]

Guitar 1 (lead)
e|---------------------------------------------------------------------------|
B|---------------------------------------------------------------------------|
G|-8-8-8-8-8------------------------5-5-5-5-5--------------------------------|
D|-8-8-8-8-8-5-6-8-8-8-8-8-8-8-8-8--5-5-5-5-5-3-5-6-6-6-6-6-6-6-6-6----------|
A|-6-6-6-6-6-5-6-8-8-8-8-8-8-8-8-8--3-3-3-3-3-3-5-6-6-6-6-6-6-6-6-6----------|
D|-----------5-6-8-8-8-8-8-8-8-8-8------------3-5-6-6-6-6-6-6-6-6-6----------|

e|---------------------------------------------------------------------------|
B|---------------------------------------------------------------------------|
G|----8---8-------------------------5-5-5-5-5--------------------------------|
D|----8---8--5-6-8-8-8-8-8-8-8-8-8--5-5-5-5-5-3-5-6\------------xxx-xxx-xxx--|
A|----6---6--5-6-8-8-8-8-8-8-8-8-8--3-3-3-3-3-3-5-6\------------xxx-xxx-xxx--|
D|-----------5-6-8-8-8-8-8-8-8-8-8------------3-5-6\------------xxx-xxx-xxx--|


e|---------------------------------------------------------------------------|
B|-11----------11-------------------11----------------------13---------------|
G|-------12-10----10-12-10----------------------------12----------12-13-12---|
D|-------------------------13-12-10----12-13-12-12-10----13----13----------13|
A|----13---------------------------------------------------------------------|
D|---------------------------------------------------------------------------|

e|---------------------------------------------------------------------------|
B|-13----------------------11----------------------11----------------------13|
G|-------12----------12-10-------12-10-------------------10----------12------|
D|----13----13-13----------------------12----12-------12----12-13-10----13---|
A|----------------13----------13----------13----13---------------------------|
D|---------------------------------------------------------------------------|

e|------------------------|
B|-13---------------------|
G|-------12-13------------|
D|----13------------------|
A|------------------------|
D|------------------------|



Guitar 2 (Rhythm)
e|---------------------------------------------------------------------------|
B|---------------------------------------------------------------------------|
G|-8-8-8-8-8------------------------5-5-5-5-5--------------------------------|
D|-8-8-8-8-8-5-6-8-8-8-8-8-8-8-8-8--5-5-5-5-5-3-5-6-6-6-6-6-6-6-6-6----------|
A|-6-6-6-6-6-5-6-8-8-8-8-8-8-8-8-8--3-3-3-3-3-3-5-6-6-6-6-6-6-6-6-6----------|
D|-----------5-6-8-8-8-8-8-8-8-8-8------------3-5-6-6-6-6-6-6-6-6-6----------|


e|---------------------------------------------------------------------------|
B|---------------------------------------------------------------------------|
G|----8---8-------------------------5-5-5-5-5--------------------------------|
D|----8---8--5-6-8-8-8-8-8-8-8-8-8--5-5-5-5-5-3-5-6\------------xxx-xxx-xxx--|
A|----6---6--5-6-8-8-8-8-8-8-8-8-8--3-3-3-3-3-3-5-6\------------xxx-xxx-xxx--|
D|-----------5-6-8-8-8-8-8-8-8-8-8------------3-5-6\------------xxx-xxx-xxx--|

e|---------------------------------------------------------------------------|
B|---------------------------------------------------------------------------|
G|-8-8-8-8-8------------------------5-5-5-5-5--------------------------------|
D|-8-8-8-8-8-5-6-8-8-8-8-8-8-8-8-8--5-5-5-5-5-3-5-6-6-6-6-6-6-6-6-6----------|
A|-6-6-6-6-6-5-6-8-8-8-8-8-8-8-8-8--3-3-3-3-3-3-5-6-6-6-6-6-6-6-6-6----------|
D|-----------5-6-8-8-8-8-8-8-8-8-8------------3-5-6-6-6-6-6-6-6-6-6----------|

e|---------------------------------------------------------------------------|
B|---------------------------------------------------------------------------|
G|-8-8-8-8-8------------------------5-5-5-5-5--------------------------------|
D|-8-8-8-8-8-5-6-8-8-8-8-8-8-8-8-8--5-5-5-5-5-3-5-6\-------------------------|
A|-6-6-6-6-6-5-6-8-8-8-8-8-8-8-8-8--3-3-3-3-3-3-5-6\-------------------------|
D|-----------5-6-8-8-8-8-8-8-8-8-8------------3-5-6\-------------------------|




Legend: 
/    = slide up
\    = slide down
~    = virbato
.    = palm mute
b    = bend string
r    = release bend
x    = muted string
I want to post or [tab]
guest
You may want to rate the tab now too:
select rating
Please do not post tabs as comments. Select "correction" instead!