Oops, an error
Loading. Please wait.

Straight To Dvd Tab

ver1
ver1

Intro

Album

More versions @911Tabs.com
5,119 views 53 this week
no commentswrite comment
1 2 3 4 5
excellent!
x 6
add to favorites launch autoscroll
font size
0
reset
Autoscroll
+/-
esc
set tempo
stop
Contributor
Difficulty
Tuning
intermediate
C# G# C# F# A# D#
WARNING: You are trying to view
                                    content from Ultimate-Guitar.com
                                    in an unauthorized application,
                                    which is prohibited.

                                    Please use an official Ultimate
                                    Guitar Tabs application for iPhone,
                                    iPad or Android to access legitimate
                                    chords, guitar, bass, and drum tabs
                                    from Ultimate-Guitar.com database.

                                    Type "ultimate guitar tabs" in Apple
                                    App Store's or Android Market's
                                    search to find the application.
All Time Low - Straight to DVD
Tabbed by : Khalamity
Drop C#

I decided to tab this out since they perform their songs differently from 
their studio versions.
Tabbed out by ear and by watching the live DVD.
I'll leave it to you to figure out the strumming patterns.

Tracklisting
1."Intro" 
2."Lost in Stereo"  
3."Stella" 
4."Break Your Little Heart"  
5."Six Feet Under the Stars" 
6."A Party Song (The Walk of Shame)" 
7."Jasey Rae"  
8."Poppin' Champagne" 
9."Remembering Sunday ft. Juliet Simms" 
10."Therapy"  
11."Coffee Shop Soundtrack" 
12."Weightless" 
13."Too Much" 
14."Damned if I Do Ya (Damned if I Don't)" 
15."Dear Maria, Count Me In" 



-----------------------------------------------------------------------------------------------------
                                           Intro
-----------------------------------------------------------------------------------------------------


Alex (Delay Effect)
D#|-----------------13~----------------------------|
A#|--------11----11---------------11----11-10~-----|
F#|-12--12----12-----------12--12----12--------10~-|
C#|------------------------------------------------| x8
G#|------------------------------------------------|
C#|------------------------------------------------|

D#|-------------------13-13-13-------------------------------------------------------|
A#|----------11-11-11----------10-10-11-11----------11-11-11-10-10-10-10-------------|
F#|-12-12-12-------------------------------12-12-12----------------------10-10-10-10-|
C#|----------------------------------------------------------------------------------|
G#|----------------------------------------------------------------------------------|
C#|----------------------------------------------------------------------------------|

D#|-------------------13-13-13-----------------------------------|
A#|----------11-11-11----------10-10-11-11----------11-11-11-----|
F#|-12-12-12-------------------------------12-12-12----------12\-|
C#|--------------------------------------------------------------|
G#|--------------------------------------------------------------|
C#|--------------------------------------------------------------|

Jack (When Alex plays his first riff the 3rd time.)
D#|----------------------|
A#|----------------------|
F#|-------8~----3~-------|
C#|-5~----8~----3~----3~-|
G#|-5~----6~----1~----3~-|
C#|-5~----------------3~-|

D#|--------------------------------------|
A#|--------------------------------------|
F#|--------------------------------------|
C#|-----------8-8--8----3-3--3-----------| x3
G#|-5-5--5----6-6--6----1-1--1----3-3--3-| 
C#|-5-5--5------------------------3-3--3-|
    x x  x    x x  x    x x  x    x x  x

D#|--------------------------------------|
A#|--------------------------------------|
F#|--------------------------------------|
C#|--------------------------------------|
G#|-5-5--5----5-5--5----5-5--5----5-5--5-|
C#|-5-5--5----5-5--5----5-5--5----5-5--5-|
    x x  x    x x  x    x x  x    x x  x



-----------------------------------------------------------------------------------------------------
                                        Lost in Stereo
-----------------------------------------------------------------------------------------------------
Format :

Main Riff
Verse 1
Chorus
Verse 2
Chorus
Bridge
Breakdown
Chorus x2

~~~~~~~~Verse 1~~~~~~~~

Alex
D#|----------------------------------|
A#|----------------------------------|
F#|-\12--15-14-1012--\15-14~-17~-15~-|
C#|-\x---x--x--x-x---\x--x-~-x-~-x-~-| x2
G#|-\10--13-12-8-10--\13-12~-15~-13~-|
C#|----------------------------------|


Jack
D#|-------------------------------------|
A#|-------------------------------------|
F#|----------33333333-------------------|
C#|-55555555-33333333-33333333-11111111-|
G#|-55555555-11111111-33333333-11111111-|
C#|-55555555----------33333333-11111111-|


~~~~~~~Verse 1~~~~~~~

Alex/Jack
D#|--------------|
A#|--------------|
F#|-3--2---------|
C#|-3--3--1---11-|
G#|-1--0--1---11-|
C#|-------1---11-|
              x
D#|-------------------------------------------------------------------|
A#|-------------------------------------------------------------------|
F#|-33----------------2-----------------------------------------------|
C#|-33-33333333333333-3-33333333333333-1----------------33333333------|
G#|-11-11111111111111-0-00000000000000-1-11111111111111-33333333------|
C#|------------------------------------1-11111111111111-33333333---8/-|
    x  xxxxxxxxxxxxxx   xxxxxxxxxxxxxx   xxxxxxxxxxxxxx


~~~~~~~Chorus~~~~~~~

Alex
D#|-------------------------------------|
A#|-------------------------------------|
F#|----------33333333-------------------|
C#|-55555555-33333333-33333333-11111111-|  x2
G#|-55555555-11111111-33333333-11111111-|
C#|-55555555----------33333333-11111111-|

D#|-----x-xx------x-xx------x-xx-----x-xx-|
A#|-----x-xx------x-xx------x-xx-----x-xx-|
F#|-----x-xx------x-xx--33--x-xx-----x-xx-|
C#|-55--x-xx--11--x-xx--33--x-xx--33-x-xx-|
G#|-55--x-xx--11--x-xx--11--x-xx--33-x-xx-|
C#|-55--x-xx--11--x-xx------x-xx--33-x-xx-|

D#|------------------------------|
A#|------------------------------|
F#|----------33333333------------|
C#|-55555555-33333333-33333333-1-|
G#|-55555555-11111111-33333333-1-|
C#|-55555555----------33333333-1-|



Jack
D#|---------------------------------------------|
A#|---------------------------------------------|
F#|-77777777-1010101010101010-55555555-33333333-|
C#|-xxxxxxxx-x-x-x-x-x-x-x-x--xxxxxxxx-xxxxxxxx-|  x2
G#|-55555555-8-8-8-8-8-8-8-8--33333333-11111111-|
C#|---------------------------------------------|

D#|-----x-xx------x-xx--------x-xx-----x-xx-|
A#|-----x-xx------x-xx--------x-xx-----x-xx-|
F#|-77--x-xx--33--x-xx--1010--x-xx--55-x-xx-|
C#|-xx--x-xx--xx--x-xx--x-x---x-xx--xx-x-xx-|
G#|-55--x-xx--11--x-xx--8-8---x-xx--33-x-xx-|
C#|-----x-xx------x-xx--------x-xx-----x-xx-|

D#|--------------------------------------|
A#|--------------------------------------|
F#|-77777777-1010101010101010-55555555-3-|
C#|-xxxxxxxx-x-x-x-x-x-x-x-x--xxxxxxxx-x-|
G#|-55555555-8-8-8-8-8-8-8-8--33333333-1-|
C#|--------------------------------------|


~~~~~~~Verse 2~~~~~~~

Alex
D#|---| |--------------------------------------------------------------|
A#|---| |--------------------------------------------------------------|
F#|---| |-33----------------2------------------------------------------|
C#|-1-| |-33-33333333333333-3-33333333333333-1----------------33333333-|
G#|-1-| |-11-11111111111111-0-00000000000000-1-11111111111111-33333333-|
C#|-1-| |------------------------------------1-11111111111111-33333333-|
          x  xxxxxxxxxxxxxx   xxxxxxxxxxxxxx   xxxxxxxxxxxxxx

Jack
D#|-------13-------13-------13-------13-------13----|
A#|-10-11----10-11----10-11----10-11----10-11----11-|
F#|-------------------------------------------------| 
C#|-------------------------------------------------| x7
G#|-------------------------------------------------|
C#|-------------------------------------------------|


~~~~~~~Bridge~~~~~~~

Alex
D#|--------------------------------------|
A#|--------------------------------------|
F#|--55555555-88888888-33333333-22222222-|
C#|--55555555-88888888-33333333-33333333-|
G#|--33333333-66666666-11111111-00000000-|
C#|--------------------------------------|

D#|-----------------------------------------|
A#|-----------------------------------------|
F#|--55555555-88888888-1010101010101010-10~-|
C#|--55555555-88888888-1010101010101010-10~-|
G#|--33333333-66666666-8-8-8-8-8-8-8-8--8-~-|
C#|-----------------------------------------|

Jack
D#|-------------------------------------------------|
A#|-------------11-11-13-13-------------11-11-13-13-|
F#|-12-12-12-12-------------12-12-12-12-------------|
C#|-------------------------------------------------|
G#|-------------------------------------------------|
C#|-------------------------------------------------|

D#|-------------------------------------------------|
A#|-------------11-11-13-13-------------11-11-13-13-|
F#|-10-10-10-10-------------10-10-10-10-------------|
C#|-------------------------------------------------| x2
G#|-------------------------------------------------|
C#|-------------------------------------------------|

D#|-------------------------------------------------|
A#|-------------------------11-11-11-11-10-10-10-10-|
F#|-10-10-10-10-10-10-10-10-------------------------|
C#|-------------------------------------------------|
G#|-------------------------------------------------|
C#|-------------------------------------------------|

D#|-------------------------------------------------|
A#|-------------11-11-13-13-------------11-11-13-13-|
F#|-12-12-12-12-------------12-12-12-12-------------|
C#|-------------------------------------------------|
G#|-------------------------------------------------|
C#|-------------------------------------------------|

D#|-------------------------------------------------|
A#|-------------11-11-13-13-------------11-11-13-13-|
F#|-10-10-10-10-------------10-10-10-10-------------|
C#|-------------------------------------------------|
G#|-------------------------------------------------|
C#|-------------------------------------------------|

D#|-------------------------------------------------|
A#|-------------------------11-11-11-11-10-10-10-10-|
F#|-10-10-10-10-10-10-10-10-------------------------|
C#|-------------------------------------------------|
G#|-------------------------------------------------|
C#|-------------------------------------------------|

D#|------------------------------|
A#|-10-10-10-10-10-10-10-10--11~-|
F#|------------------------------|
C#|------------------------------|
G#|------------------------------|
C#|------------------------------|


~~~~~~~Breakdown~~~~~~~

Alex
D#|-------------------|
A#|-------------------|
F#|-------------------|
C#|-11111111-11111111-|
G#|-11111111-11111111-|
C#|-11111111-11111111-|
    xxxxxxxx xxx

Jack
(Pickslide towards the end)



-----------------------------------------------------------------------------------------------------
                                         Stella
-----------------------------------------------------------------------------------------------------
Format :

Main Riff
Verse
Chorus
Main Riff
Verse
Chorus
Bridge
Breakdown
Chorus

~~~~~~~~Main Riff~~~~~~~~

Alex
D#|--------------------------------------------|
A#|--------------------------------------------|
F#|--------------------------------------------|
C#|----\5-\7----\5-\7---\7-5-3---3-7-5---------|
G#|-\8~------\7~-----\5~------3~---------------|
C#|--------------------------------------------|
                                

Jack
D#|----------------------------------------------------|
A#|----------------------------------------------------|
F#|---------------2222222222--3333333333--5555555555---|
C#|--33333333333--2222222222--3333333333--5555555555---|
G#|--33333333333--0000000000--1111111111--3333333333---|
C#|--33333333333---------------------------------------|


~~~~~~~Verse~~~~~~~

Jack
D#|----------------------|------------------------||------------------------|
A#|----------------------|------------------------||------------------------|
F#|------------777777777-|-------------5555555555-||-------------5-5-5-5555-|
C#|-333333333--777777777-|-8888888888--5555555555-||-8-8-8-8888--5-5-5-5555-|
G#|-333333333--555555555-|-8888888888--3333333333-||-8-8-8-8888--3-3-3-3333-|
C#|-333333333------------|-8888888888-------------||-8-8-8-8888-------------|
    xxxxxxxxx  xxxxxxxxx   xxxxxxxxxx  xxxxxxxxxx
                           1st Time                  2nd Time 


~~~~~~~Chorus~~~~~~~

Alex
D#|--------------------------------------------------|
A#|--------------------------------------------------|
F#|---------------2222222222--3333333333--5555555555-|
C#|--33333333333--2222222222--3333333333--5555555555-|
G#|--33333333333--0000000000--1111111111--3333333333-|
C#|--33333333333-------------------------------------|

D#|-------------------------------------------|
A#|-------------------------------------------|
F#|---------------2222222222--7777777777--3~--|
C#|--33333333333--2222222222--7777777777--3~--|
G#|--33333333333--0000000000--5555555555--1~--|
C#|--33333333333------------------------------|


Jack
D#|------------|-----------|-----------|------------|------------|
A#|---6-5-6^-5-|--6-5-6^-5-|--6-5-6^-5-|---6-5-6^-5-|--\8-6-8-10-|
F#|-5----------|6----------|7----------|-5----------|------------|
C#|------------|-----------|-----------|------------|------------|
G#|------------|-----------|-----------|------------|------------|
C#|------------|-----------|-----------|------------|------------|
  2x            2x          2x          1x           1x


~~~~~~~Bridge~~~~~~~

Alex
D#|----------------------------------------------------------|
A#|----------------------------------------------------------|
F#|--7-7-7-7-7-7-7777-5-5-5-5-5-5-5555------------5~-----5-6-|
C#|--7-7-7-7-7-7-7777-5-5-5-5-5-5-5555---8~--33~--5~-33~-5-6-|
G#|--5-5-5-5-5-5-5555-3-3-3-3-3-3-3333---8~--33~--3~-33~-3-4-|
C#|--------------------------------------8~--33~-----33~-----|

D#|--------------------------------------------------|
A#|--------------------------------------------------|
F#|--7-7-7-7-7-7-7777-5-5-5-5-5-5-5555------------5~-|
C#|--7-7-7-7-7-7-7777-5-5-5-5-5-5-5555---8~--33~--5~-|
G#|--5-5-5-5-5-5-5555-3-3-3-3-3-3-3333---8~--33~--3~-|
C#|--------------------------------------8~--33~-----|
                                  xxxx


Jack
D#|----------------------------------------------------------|
A#|----------------------------------------------------------|
F#|--14-14-14-14-14-14-14141414-12-12-12-12-12-12-12121212---|
C#|--x--x--x--x--x--x--x-x-x-x--x--x--x--x--x--x--x-x-x-x----|
G#|--12-12-12-12-12-12-12121212-10-10-10-10-10-10-10101010---|
C#|----------------------------------------------------~-----|

D#|---------------------|
A#|---------------------|
F#|--12~-55~-\14~-1010~-|
C#|--x-~-xx~-\x-~-x-x-~-|
G#|--10~-33~-\12~-8-8-~-|
C#|---------------------|

D#|----------------------------------------------------------|
A#|----------------------------------------------------------|
F#|--14-14-14-14-14-14-14141414-12-12-12-12-12-12-12121212---|
C#|--x--x--x--x--x--x--x-x-x-x--x--x--x--x--x--x--x-x-x-x----|
G#|--12-12-12-12-12-12-12121212-10-10-10-10-10-10-10101010---|
C#|----------------------------------------------------~-----|

D#|---------------|
A#|---------------|
F#|--12~-55~-\14~-|
C#|--x-~-xx~-\x-~-|
G#|--10~-33~-\12~-|
C#|---------------|


~~~~~~~Breakdown~~~~~~~   

Alex
D#|-----------------------|
A#|-----------------------|
F#|------2~--3~--5~-------|
C#|--3~--2~--3~--5~-/////-|
G#|--3~--0~--1~--3~-/////-|
C#|--3~-------------/////-|
                    Pickslide

Jack
D#|-----|
A#|-----|
F#|-10~-|
C#|-x-~-|
G#|-8-~-|
C#|-----|



-----------------------------------------------------------------------------------------------------
                                     Break Your Little Heart
-----------------------------------------------------------------------------------------------------
Format :

Main Riff
Verse 1
Chorus
Main Riff
Verse 2
Chorus x2
Bridge
Solo
Chorus x2

~~~~~~~~Main Riff~~~~~~~~

Alex
D#|------------------------------------------------------|
A#|------------------------------------------------------|
F#|------------------------------------------------------|
C#|------4---6-4-3--6---6-4-3-------8---6-4-3----8-------|
G#|------4----------6---------6-4---8------------8---8-6-|
C#|-11/--4----------6---------------8------------8-------|

D#|-------------------------------------------------|
A#|-------------------------------------------------|
F#|-------------------------------------------------|
C#|-4---6-4-3--6---6-4-3-------8---6-4-3----8-------|
G#|-4----------6---------6-4---8------------8---8-6-|
C#|-4----------6---------------8------------8-------|


Jack
D#|---------------------------------------|
A#|---------------------------------------|
F#|-----------------------------------6---|
C#|-4--4-4---6--6666---8--8-8---8--8--6-6-| x2
G#|-4--4-4---6--6666---8--8-8---8--8--4-6-| 
C#|-4--4-4---6--6666---8--8-8---8--8----6-|



~~~~~~~~Verse 1~~~~~~~~


Alex
D#|----------------------------------------------|
A#|----------------------------------------------|
F#|----6------6------------------------------6---|
C#|-4--6-6-8--6-6-4--------------------------6-6-|
G#|-4--4-6-8--4-6-4-444444-66666666-88888888-4-6-| 
C#|-4----6-8----6-4-444444-66666666-88888888---6-|
                    xxxxxx xxxxxxxx xxxxxxxx

D#|--------------------------------------------|
A#|--------------------------------------------|
F#|----6------6--------------------------------|
C#|-4--6-6-8--6-6-4----------------------------|
G#|-4--4-6-8--4-6-4-444444-66666666-4444444444-| 
C#|-4----6-8----6-4-444444-66666666-4444444444-|
                    xxxxxx xxxxxxxx xxxxxx

Jack
D#|---------------------------------------|
A#|---------------------------------------|
F#|-66666666-6666-8-10--66666666-6666-8-8-|
C#|-xxxxxxxx-xxxx-x-x---xxxxxxxx-xxxx-x-x-|
G#|-44444444-4444-6-8---44444444-4444-6-6-|
C#|---------------------------------------|

D#|---------------------------------|
A#|---------------------------------|
F#|-66666666-88888888-66666666--6-6-|
C#|-xxxxxxxx-xxxxxxxx-xxxxxxxx--x-x-|
G#|-44444444-66666666-44444444--4-4-|
C#|---------------------------------|
     xxxxxxx  xxxxxxx  xxxxxxx

D#|----------------------------------|
A#|----------------------------------|
F#|-66666666-6666-6-6--6~-------6666-|
C#|-xxxxxxxx-xxxx-x-x--x~-------xxxx-|
G#|-44444444-4444-4-4--4~-------4444-|
C#|----------------------------------|

D#|-------------------------------|
A#|-------------------------------|
F#|-66666666-88888888-66666666--6-|
C#|-xxxxxxxx-xxxxxxxx-xxxxxxxx--x-|
G#|-44444444-66666666-44444444--4-|
C#|-------------------------------|
     xxxxxxx  xxxxxxx xxxx        



~~~~~~~~Chorus~~~~~~~~

Alex
D#|-------------------------------------|------------------------------------|
A#|-------------------------------------|------------------------------------|
F#|-66666666----------------------------|------------------------------------|
C#|-66666666-66666666-88888888-44444444-|-88888888-66666666-444444444-4------|
G#|-44444444-66666666-88888888-44444444-|-88888888-66666666-444444444-4------|
C#|----------66666666-88888888-44444444-|-88888888-66666666-444444444-4------|


Jack
D#|-16----16----16--------16--------------16--------------14--------14-------14---|
A#|----14----14----141414----141414141414---141414141414-----141414---141414---14-|
F#|-------------------------------------------------------------------------------|
C#|-------------------------------------------------------------------------------| x2
G#|-------------------------------------------------------------------------------|
C#|-------------------------------------------------------------------------------|


~~~~~~~~Verse 1~~~~~~~~


Alex
D#|----------------------------------------------|
A#|----------------------------------------------|
F#|----6------6------------------------------6---|
C#|-4--6-6-8--6-6-4--------------------------6-6-|
G#|-4--4-6-8--4-6-4-444444-66666666-88888888-4-6-| 
C#|-4----6-8----6-4-444444-66666666-88888888---6-|
                    xxxxxx xxxxxxxx xxxxxxxx

D#|---xx-xx-xx-----------------------------------------|
A#|---xx-xx-xx-----------------------------------------|
F#|---xx-xx-xx-6------6--------------------------------|
C#|-4-xx-xx-xx-6-6-8--6-6-4----------------------------|
G#|-4-xx-xx-xx-4-6-8--4-6-4-444444-66666666-4444444444-| 
C#|-4-xx-xx-xx---6-8----6-4-444444-66666666-4444444444-|
                            xxxxxx xxxxxxxx xxxxxx

Jack
D#|----------------------------------------|
A#|----------------------------------------|
F#|-66666666-6666-8-10--66666666-6666-8-10-|
C#|-xxxxxxxx-xxxx-x-x---xxxxxxxx-xxxx-x-x--|
G#|-44444444-4444-6-8---44444444-4444-6-8--|
C#|----------------------------------------|

D#|-------------16----------|   |-------16--------16--------16-----------|
A#|-14-14-13-14----14-13-14-|   |-13-14-----13-14-----13-14----13-14-16/-|
F#|-------------------------|   |----------------------------------------|
C#|-------------------------| x3|----------------------------------------|
G#|-------------------------|   |----------------------------------------|
C#|-------------------------|   |----------------------------------------|
  

D#|------------------------|
A#|------------------------|
F#|---------------8-10--6~-|
C#|---------------x-x---x~-|
G#|---------------6-8---4~-|
C#|------------------------|

D#|-------------16----------|   |-------16--------16--------16-----------|
A#|-14-14-13-14----14-13-14-|   |-13-14-----13-14-----13-14----13-14-16/-|
F#|-------------------------|   |----------------------------------------|
C#|-------------------------| x3|----------------------------------------|
G#|-------------------------|   |----------------------------------------|
C#|-------------------------|   |----------------------------------------|   



~~~~~~~Bridge~~~~~~~

Alex
D#|-------------------------------------|--------------------------|
A#|-------------------------------------|--------------------------|
F#|--------------------66666666---------|-------------------6-6----|
C#|--88888888-44444444-66666666-66666666|-88888888-44444444-6-6-6~-|
G#|--88888888-44444444-44444444-66666666|-88888888-44444444-4-4-6~-|
C#|--88888888-44444444----------66666666|-88888888-44444444-----6~-|


Jack
D#|-------9-----9-----9-----9-----9-|   |--9~-9~--\11~-|
A#|-6-6-7---6-7---6-7---6-7---6-7---|   |--------------|
F#|---------------------------------|   |--------------|
C#|---------------------------------| x3|--------------|
G#|---------------------------------|   |--------------|
C#|---------------------------------|   |--------------|


~~~~~~~Solo~~~~~~~

Alex
D#|---------------------------------------------------------------|
A#|---------------------------------------------------------------|
F#|---------------------------------------------13-------13-------|
C#|-11-11-11----10-10-10----8-10-11----------------10-11----10-11-|
G#|----------11----------11---------11~-11-9-8--------------------|
C#|---------------------------------------------------------------|

D#|-----------------------------------------|
A#|-------------------------------------14/-|
F#|-13-------13-------13-------13-----------|
C#|----10-11----10-11----10-11----10-11-----|
G#|-----------------------------------------|
C#|-----------------------------------------|


Jack
D#|-------------------------------------|------------------------------------|
A#|-------------------------------------|------------------------------------|
F#|-66666666----------------------------|------------------------------------|
C#|-66666666-66666666-88888888-44444444-|-88888888-66666666-444444444-4------|
G#|-44444444-66666666-88888888-44444444-|-88888888-66666666-444444444-4------|
C#|----------66666666-88888888-44444444-|-88888888-66666666-444444444-4------|



-----------------------------------------------------------------------------------------------------
                                   Six Feet Under the Stars
-----------------------------------------------------------------------------------------------------
Format :

Verse 1
Chorus
Break
Verse 2
Chorus
Bridge
Breakdown
Outro


~~~~~~~~Verse 1~~~~~~~~

Alex (time off, we can kick it...)
D#|---------------------------------------------|
A#|---------------------------------------------|
F#|---------------------------------------------|
C#|-1~------66666666-66666666-66666666-66666666-|
G#|-1~------66666666-66666666-66666666-66666666-|
C#|-1~------66666666-66666666-66666666-66666666-|

D#|--------|
A#|--------|
F#|--------|
C#|-10~-6~-|
G#|-10~-6~-|
C#|-10~-6~-|


Jack
D#|--------------------------------------------------------------------|
A#|--------------------------------------------------------------------|
F#|-88888888-88888888-7~--88888888-88101010101010-77777777-77888101010-|
C#|-xxxxxxxx-xxxxxxxx-----xxxxxxxx-xxx-x-x-x-x-x--xxxxxxxx-xxxxxx-x-x--|
G#|-66666666-66666666-----66666666-668-8-8-8-8-8--55555555-556668-8-8--|
C#|--------------------------------------------------------------------|

D#|-------------------------------------------------------------------------------------|
A#|-------------------------------------------------------------------------------------|
F#|-88888888-88888888-88888888-88888888--88888888-810101010101010-77777777-788810101010-|
C#|-xxxxxxxx-xxxxxxxx-xxxxxxxx-xxxxxxxx--xxxxxxxx-xx-x-x-x-x-x-x--xxxxxxxx-xxxxx-x-x-x--|
G#|-66666666-66666666-66666666-66666666--66666666-68-8-8-8-8-8-8--55555555-56668-8-8-8--|
C#|-------------------------------------------------------------------------------------|

D#|---------xxxxxxxx-|
A#|---------xxxxxxxx-|
F#|-8~-15~--xxxxxxxx-|
C#|-x~-x-~--xxxxxxxx-|
G#|-6~-13~--xxxxxxxx-|
C#|---------xxxxxxxx-|

~~~~~~~~Chorus~~~~~~~~

Alex
D#|---------------------------------------------------------------------------------|
A#|---------------------------------------------------------------------------------|
F#|-88888888-88888888---------------------------------------------------------------|
C#|-88888888-88888888-66666666-66666666-88888888-1010101010101010-66666666-66666666-|
G#|-66666666-66666666-66666666-66666666-88888888-1010101010101010-66666666-66666666-|
C#|-------------------66666666-66666666-88888888-1010101010101010-66666666-66666666-|

D#|---------------------------------------------------------------------------|
A#|---------------------------------------------------------------------------|
F#|-88888888-88888888---------------------------------------------------------|
C#|-88888888-88888888-66666666-66666666-88888888-1010101010101010-66666666-6/-|
G#|-66666666-66666666-66666666-66666666-88888888-1010101010101010-66666666-6/-|
C#|-------------------66666666-66666666-88888888-1010101010101010-66666666-6/-|


Jack
D#|----------------------|
A#|----------------------|
F#|-88888101010-77777888-|
C#|-xxxxxx-x-x--xxxxxxxx-| x2
G#|-666668-8-8--55555666-|
C#|----------------------|

D#|---------------------------------------------|
A#|---------------------------------------------|
F#|-88888777-88888777-88888101010-1212121212777-|
C#|-xxxxxxxx-xxxxxxxx-xxxxxx-x-x--x-x-x-x-x-xxx-|
G#|-66666555-66666555-666668-8-8--1010101010555-|
C#|---------------------------------------------|

D#|----------------------|
A#|----------------------|
F#|-88888101010-77777888-|
C#|-xxxxxx-x-x--xxxxxxxx-| x2
G#|-666668-8-8--55555666-|
C#|----------------------|

D#|-------------------------------|
A#|-------------------------------|
F#|-88888777-88888777-88888101010-|
C#|-xxxxxxxx-xxxxxxxx-xxxxxx-x-x--|
G#|-66666555-66666555-666668-8-8--|
C#|-------------------------------|


~~~~~~~Break~~~~~~~

Alex
D#|----------------------|
A#|----------------------|
F#|-8~-------------/////-|
C#|-8~-------------/////-|
G#|-6~-------------/////-|
C#|----------------------|
                   Pickslide

D#|-------------------------------------|
A#|-------------------------------------|
F#|-88888888-88888888-88888888-8888////-|
C#|-xxxxxxxx-xxxxxxxx-xxxxxxxx-xxxx////-|
G#|-66666666-66666666-66666666-6666////-|
C#|-------------------------------------|
                                   Pickslide


~~~~~~~~Verse 2~~~~~~~~

Alex
D#|---------------------------------|
A#|---------------------------------|
F#|-8-8-8~---8-8-8~-----------------|
C#|-8-8-8~---8-8-8~--6-6-6~--6-6-6~-| x2
G#|-6-6-6~---6-6-6~--6-6-6~--6-6-6~-|
C#|------------------6-6-6~--6-6-6~-|

D#|-------------------------------|
A#|-------------------------------|
F#|-------------~-----------------|
C#|-10-10-10~--8-8-8~--6-6-6~--6\-|
G#|-10-10-10~--8-8-8~--6-6-6~--6\-|
C#|-10-10-10~--8-8-8~--6-6-6~--6\-|


Jack
D#|---------------|    |---------|
A#|---------------|    |---------|
F#|-------15~-----|    |---------|
C#|-12-13------13-| x10|-12~-13~-|
G#|---------------|    |---------|
C#|---------------|    |---------|


~~~~~~~Bridge~~~~~~~

Alex
D#|-----------------------------------------------------------------------------------------|
A#|-----------------------------------------------------------------------------------------|
F#|-------------~---------------------------------------88888888-88888888-------------------|
C#|-1010101010101010-1010101010101010-66666666-66666666-88888888-88888888-88888888-88888888-|
G#|-1010101010101010-1010101010101010-66666666-66666666-66666666-66666666-88888888-88888888-|
C#|-1010101010101010-1010101010101010-66666666-66666666-------------------88888888-88888888-|

D#|----------------------------------------------------------------------------------|
A#|----------------------------------------------------------------------------------|
F#|-------------~----------------------------------88-88888-8-88888------------------|
C#|-1010-1010101010-10-1010101010-66-66666-6-66666-88-88888-8-88888-88-88888-8-88888-| x2
G#|-1010-1010101010-10-1010101010-66-66666-6-66666-66-66666-6-66666-88-88888-8-88888-|
C#|-1010-1010101010-10-1010101010-66-66666-6-66666------------------88-88888-8-88888-|

Jack
D#|---------------------------------|
A#|--------11~-------9-------9---8~-|
F#|--8-8-8-----8-8-8---8-8-8---8----|
C#|---------------------------------| x3
G#|---------------------------------|
C#|---------------------------------|

D#|-------------------13-----------------|
A#|-11----9-----8------------9-----8-----|
F#|---8-8---8-8---8-8----8-8---8-8---8-8-|
C#|--------------------------------------|
G#|--------------------------------------|
C#|--------------------------------------|

D#|--------------------13---------------|
A#|----------11~----------------9---8---|
F#|--8-8-8-8-----8-8-8----8-8-8---8---8-|
C#|-------------------------------------| x3
G#|-------------------------------------|
C#|-------------------------------------|

D#|-------------------------------------|
A#|-11----9-----8-----------9-----8-----|
F#|---8-8---8-8---8-8-8-8-8---8-8---8-8-|
C#|-------------------------------------|
G#|-------------------------------------|
C#|-------------------------------------|

~~~~~~~Breakdown~~~~~~~

Alex
D#|------------------xxx-|
A#|------------------xxx-|
F#|-8~---------------xxx-|
C#|-8~-6~-8~-10~-6~--xxx-|
G#|-6~-6~-8~-10~-6~--xxx-|
C#|----6~-8~-10~-6~--xxx-|

Jack
D#|-13~------------------|
A#|----------------------|
F#|----------------------|
C#|----------------------|
G#|----------------------|
C#|----------------------|

~~~~~~~Outro~~~~~~~

Alex
D#|---------------------------------------------------------------------------------|
A#|---------------------------------------------------------------------------------|
F#|-88888888-88888888---------------------------------------------------------------|
C#|-88888888-88888888-66666666-66666666-88888888-1010101010101010-66666666-66666666-| x2
G#|-66666666-66666666-66666666-66666666-88888888-1010101010101010-66666666-66666666-|
C#|-------------------66666666-66666666-88888888-1010101010101010-66666666-66666666-|

D#|-----------| |----|
A#|-----------| |----|
F#|--------8~-| |-8\-|
C#|-10~-6~-8~-| |-8\-|
G#|-10~-6~-6~-| |-6\-|
C#|-10~-6~----| |----|

Jack
D#|-----------|    |-------------|
A#|-----------|    |-------------|
F#|-------15~-|    |-15-15-15-15-|
C#|-12-13-----| x10|-13-13-13-13-|
G#|-----------|    |-------------|
C#|-----------|    |-------------|

D#|-----------|    |-11~-13~-15~-|
A#|-----------|    |-------------|
F#|-------15~-|    |-------------|
C#|-12-13-----| x10|-------------|
G#|-----------|    |-------------|
C#|-----------|    |-------------|



-----------------------------------------------------------------------------------------------------
                                A Party Song (The Walk of Shame)
-----------------------------------------------------------------------------------------------------
Format :

Main Riff
Verse
Chorus
Main Riff
Verse
Chorus
Bridge
Breakdown
Chorus

~~~~~~~~Main Riff~~~~~~~~

Lead
D#|--------------------------------------------------------------|
A#|--------------------------------------------------------------|
F#|-12/10--12/8--12/10-13/12-10\12--12/10--7\8--12/10-13/12-10/8-|
C#|-x-/x---x-/x--x-/x--x-/x--x-\x---x-/x---x\x--x-/x--x-/x--x-/x-|
G#|-10/8---10/6--10/8--11/10-8-\10--10/8---5\6--10/8--11/10-8-/6-|
C#|--------------------------------------------------------------|

D#|---------------------------------------------|
A#|---------------------------------------------|
F#|-12/10--12/8--12/10-13/12-10\12--12/10--7\8~-|
C#|-x-/x---x-/x--x-/x--x-/x--x-\x---x-/x---x\x~-|
G#|-10/8---10/6--10/8--11/10-8-\10--10/8---5\6~-|
C#|---------------------------------------------|


Rhythm
D#|-----------------------------------------------------------------------|
A#|-----------------------------------------------------------------------|
F#|-----------------------------------------------------------------------|
C#|-1-1-----8-8-----6-6-----6-6-----1-1-----8-8-----6-6-----6-6----6~-----|
G#|-1-1-----8-8-----6-6-----6-6-----1-1-----8-8-----6-6-----6-6----6~-----|
C#|-1-1-----8-8-----6-6-----6-6-----1-1-----8-8-----6-6-----6-6----6~-----|


~~~~~~~Verse~~~~~~~

Lead
D#|----------------------------------|
A#|----------------------------------|
F#|-88--88-888--88-888--88-8--8-/10--|
C#|-xx--xx-xxx--xx-xxx--xx-x--x-/x---| x3
G#|-66--66-666--66-666--66-6--6-/8---|
C#|----------------------------------|

D#|-----------------------------------|
A#|-----------------------------------|
F#|-12121210101088--1313131212-8-8/10-|
C#|-x-x-x-x-x-x-xx--x-x-x-x-x--x-x/x--|
G#|-1010108-8-8-66--1111111010-6-6/8--|
C#|-----------------------------------|


Rhythm
D#|---------------------------------------------------------------|
A#|---------------------------------------------------------------|
F#|---------------------------------------------------------------|
C#|-11--11-111--11-111--11-1-6-6----11--11-111--11-111--11-1-6-6--|  x3
G#|-11--11-111--11-111--11-1-6-6----11--11-111--11-111--11-1-6-6--|
C#|-11--11-111--11-111--11-1-6-6----11--11-111--11-111--11-1-6-6--|
        x  x    x  x    x               x  x    x  x    x

D#|----------------------|
A#|----------------------|
F#|-55555555-------------|
C#|-55555555-6666666-/-8-|
G#|-33333333-6666666-/-8-|
C#|----------6666666-/-8-|


~~~~~~~Chorus~~~~~~~

Lead
D#|----------------------------------------------------------|
A#|----------------------------------------------------------|
F#|--8h10--8h10--8888-10101010----8h10---8h10--8888-10101010-|
C#|-8-----8------xxxx-x-x-x-x---8------8-------xxxx-x-x-x-x--|
G#|--------------6666-8-8-8-8------------------6666-6-6-6-6--|
C#|----------------------------------------------------------|

D#|---------------------------------------------------------------|
A#|---------------------------------------------------------------|
F#|-8888-10101010-12121212-13131313----8h10---8h10--8888-10101010-|
C#|-xxxx-x-x-x-x--x-x-x-x--x-x-x-x---8------8-------xxxx-x-x-x-x--|
G#|-6666-8-8-8-8--10101010-11111111-----------------6666-6-6-6-6--|
C#|---------------------------------------------------------------|


Rhythm
D#|-------------------------------------------------------------|
A#|-------------------------------------------------------------|
F#|-------------------------------------------------------------|
C#|-11---55---66666666--11---88---66666666--1111-8888-5555-6666-|
G#|-11---55---66666666--11---88---66666666--1111-8888-5555-6666-|
C#|-11---55---66666666--11---88---66666666--1111-8888-5555-6666-|

D#|--------------------|
A#|--------------------|
F#|--------------------|
C#|-11---55---66666666-|
G#|-11---55---66666666-|
C#|-11---55---66666666-|


~~~~~~~Bridge~~~~~~~

Lead
D#|-----------------------------------------------------------------|
A#|-----------------------------------------------------------------|
F#|-121212-101010-88--121212-101010-88--12-12--1010-15-13-12-10-888-|
C#|-x-x-x--x-x-x--xx--x-x-x--x-x-x--xx--x--x---x-x--x--x--x--x--xxx-|
G#|-101010-8-8-8--66--101010-8-8-8--66--10-10--8-8--13-11-10-8--666-|
C#|-----------------------------------------------------------------|

D#|--------------------------|
A#|--------------------------|
F#|-88888888-88888888--10-10-|
C#|-xxxxxxxx-xxxxxxxx--x--x--|
G#|-66666666-66666666--8--8--|
C#|--------------------------|


Rhythm
D#|-------------------------------------------------------------------|
A#|-------------------------------------------------------------------|
F#|-55555555----------------------------5555--------------------------|
C#|-55555555--66666666--1-1---88888888--5555-55555555-66666666---8-8~-|
G#|-33333333--66666666--1-1---88888888--3333-55555555-66666666---8-8~-|
C#|-----------66666666--1-1---88888888-------55555555-66666666---8-8~-|

~~~~~~~Breakdown~~~~~~~

No riffs, but a couple of palm mutes in rhythm that leads to the 2nd part of the chorus.



-----------------------------------------------------------------------------------------------------
                                      Jasey Rae
-----------------------------------------------------------------------------------------------------
Format :

Intro
Main Riff
Verse 1
Chorus
Break
Verse 2
Chorus
Bridge
Solo
Outro

~~~~~~~~Intro~~~~~~~~

Alex/Jack
D#|------------------------|
A#|------------------------|
F#|------------------------|
C#|------0~---0~---0~---0~-|
G#|------0~---0~---0~---0~-|
C#|-12/--0~---0~---0~---0~-|


~~~~~~~Main Riff~~~~~~~

Alex
D#|-----------------------------|
A#|-15--15-----15--15-----15----|
F#|---14---12----14---12-----14-|
C#|-----------------------------| x4
G#|-----------------------------|
C#|-----------------------------|

D#|-1212-------12--12----12----12--12----12--12----12---|
A#|------15------15--------15----15--------15--------15-|
F#|--------14--------14--------------14--------14-------|
C#|-----------------------------------------------------|
G#|-----------------------------------------------------|
C#|-----------------------------------------------------|


D#|-14--14----14--14----14----------------12--12----12---|
A#|---15--------15--------15--14h15p14------15--------15-|
F#|-------14--------14----------------14--------14-------|
C#|------------------------------------------------------|
G#|------------------------------------------------------|
C#|------------------------------------------------------|

D#|--------------------------------------------------------|
A#|-1415151515151515-1515151515151515-1515151515151515-15/-|
F#|-1414141414141414-1414141414141414-1414141414141414-14/-|
C#|--------------------------------------------------------|
G#|--------------------------------------------------------|
C#|--------------------------------------------------------|



Jack
D#|------------------------------|------------------------------------------------|
A#|------------------------------|------------------------------------------------|
F#|------------------------------|------------------------------------------------|
C#|-5~-----4---00000000-00000000-|-55555555-44444444-00000000-9999-7777-5~--5555--|
G#|-5~-----4---00000000-00000000-|-55555555-44444444-00000000-9999-7777-5~--5555--|
C#|-5~-----4---00000000-00000000-|-55555555-44444444-00000000-9999-7777-5~--5555--|
                                                                            xxxx


~~~~~~~Verse 1~~~~~~~


Alex
D#|----| |-------------------|
A#|----| |-------------------|
F#|----| |-------------------|
C#|-0~-| |-------------------|
G#|-0~-| |-99999999-77777777-|
C#|-0~-| |-99999999-77777777-| 
           xxxxxxxx xxxxxxxx
D#|----------------------------------------------------------------|
A#|----------------------------------------------------------------|
F#|----------------------------------------------------------------|
C#|-------------------------------------------------------5~-------|
G#|-555-5-55--777-7-77-------999-9-99-99999999--77777777--5~-------|
C#|-555-5-55--777-7-77--12/--999-9-99-99999999--77777777--5~-------|
    xxx x xx  xxx x xx       xxx x xx xxxxxxxx  xxxxx


Jack
D#|-----------------------|
A#|-10-10-----------------|
F#|---7--7~----------14~--|
C#|------------11-12------|
G#|-----------------------|
C#|-----------------------|

D#|-------------------------------------------------|
A#|-------------------------------------------------|
F#|-------------14-14-------------14-14-------------|
C#|-11-12-11-12-------11-12-11-12-------11-12-11-12-|
G#|-------------------------------------------------|
C#|-------------------------------------------------|
    x  x  x  x  x  x  x  x  x  x  x  x  x


D#|--------------------------------------------------------|
A#|--------------------------------------------------------|
F#|-11-11-11-7-7-7-7--\14-14-14-9-9-9-9--\11-11-11-7-7-7-7-|
C#|-x--x--x--x-x-x-x--\x--x--x--x-x-x-x--\x--x--x--x-x-x-x-|
G#|-9--9--9--5-5-5-5--\12-12-12-7-7-7-7--\9--9--9--5-5-5-5-|
C#|--------------------------------------------------------|

D#|---------------------|
A#|---------------------|
F#|-9-9-9-9-9-9-9-9--7~-|
C#|-x-x-x-x-x-x-x-x--x~-|
G#|-7-7-7-7-7-7-7-7--5~-|
C#|---------------------|


~~~~~~~Chorus~~~~~~~

Alex
D#|-----------------------------------------------------|
A#|--1010101010101010-1010101010101010-1010101010101010-|
F#|--7-7-7-7-7-7-7-7--9-9-9-9-9-9-9-9--7-7-7-7-7-7-7-7--|
C#|--7-7-7-7-7-7-7-7------------------------------------|
G#|-----------------------------------------------------|
C#|-----------------------------------------------------|

D#|-----------------------------------------------|
A#|-----------------------------------------------|
F#|-------14-------14-------14-------14-------14--|
C#|-11-12----11-12----11-12----11-12----11-12-----|
G#|-----------------------------------------------|
C#|-----------------------------------------------|

D#|-----------------------------------------------------|
A#|--1515151515151515-1010101010101010-1010101010101010-|
F#|--1414141414141414-9-9-9-9-9-9-9-9--7-7-7-7-7-7-7-7--|
C#|--1212121212121212-----------------------------------|
G#|-----------------------------------------------------|
C#|-----------------------------------------------------|

D#|-----------------------------|
A#|-----------------------------|
F#|-------14-------14-------14~-|
C#|-11-12----11-12----11-12-----|
G#|-----------------------------|
C#|-----------------------------|


Jack
D#|-------------------------------------|
A#|-------------------------------------|
F#|-22222222-99999999-77777777-77779999-|
C#|-00000000-77777777-55555555-55557777-| x2
G#|-00000000-77777777-55555555-55557777-|
C#|-00000000-77777777-55555555-55557777-|


~~~~~~~Break~~~~~~~

Alex
D#|-----------------------------|
A#|-15--15-----15--15-----15----|
F#|---14---12----14---12-----14-|
C#|-----------------------------| x2
G#|-----------------------------|
C#|-----------------------------|


Jack
D#|----|
A#|----|
F#|----|
C#|-0~-|
G#|-0~-|
C#|-0~-|


~~~~~~~Verse 2~~~~~~~

Alex
D#|-------------------------------------|
A#|-------------------------------------|
F#|-------------------------------------|
C#|-55555555-77777777-99999999-77777777-|
G#|-55555555-77777777-99999999-77777777-|
C#|-55555555-77777777-99999999-77777777-|

D#|-------------------------------------|
A#|-------------------------------------|
F#|-------------------------------------|
C#|-5-------------777-99999999-77777777-|
G#|-55555555-77777777-99999999-77777777-|
C#|-55555555-77777777-99999999-77777777-|
     xxxxxxx xxxxx
D#|------------|
A#|------------|
F#|------------|
C#|-5~-----7~--|
G#|-5~-----7~--|
C#|-5~-----7~--|


Jack
D#|------------------------------------------------------|
A#|--88888888-88888888-1010101010101010-1010101010101010-|
F#|--77777777-77777777-9-9-9-9-9-9-9-9--9-9-9-9-9-9-9-9--|
C#|------------------------------------------------------|
G#|------------------------------------------------------|
C#|------------------------------------------------------|

D#|--------------|
A#|--10~-----10~-|
F#|--7-~-----7-~-|
C#|--------------|
G#|--------------|
C#|--------------|

D#|------------------------------------------------------|
A#|--88888888-88888888-1010101010101010-1010101010101010-|
F#|--77777777-77777777-9-9-9-9-9-9-9-9--9-9-9-9-9-9-9-9--|
C#|------------------------------------------------------|
G#|------------------------------------------------------|
C#|------------------------------------------------------|
     xxxxxxx xxxxxxxx    x x x x x x x  x x x x x 
D#|--------------|
A#|--10~-----10~-|
F#|--7-~-----7-~-|
C#|--------------|
G#|--------------|
C#|--------------|

D#|-------------|
A#|--8~-----10~-|
F#|--7~-----7-~-|
C#|-------------|
G#|-------------|
C#|-------------|



~~~~~~~Bridge~~~~~~~~

Alex (Comes in after Jack plays his first riff once)
D#|-----------------------------|
A#|-----------------------------|
F#|-------------14-14-----------|
C#|-11-11-12-12-------12-12-----| x3
G#|-----------------------------|
C#|-----------------------------|
    x  x  x  x  x  x  x  x

D#|-----------------------------|
A#|-----------------------------|
F#|-------------14-14-14-14-----|
C#|-11-11-12-12-----------------|
G#|-----------------------------|
C#|-----------------------------|
    x  x  x  x  x  x  x  x

D#|-----------------------------|
A#|-----------------------------|
F#|-------------14-14-----------|
C#|-11-11-12-12-------12-12-----| x2
G#|-----------------------------|
C#|-----------------------------|

D#|-------------|
A#|-------------|
F#|-------14----|
C#|-11-12----12-| x5
G#|-------------|
C#|-------------|


Jack (I've never lit a match...)
D#|-------------------------------------------------|
A#|-------------------------------------------------|
F#|----77----77----77----77----77----77----77----77-|
C#|----77----77----77----77----77----77----77----77-|
G#|--5-----5-----4-----4-----7-----7-----7-----7----|
C#|-5-----5-----4-----4-----7-----7-----7-----7-----|

D#|--------------------------------------------------------------------|
A#|--------------------------------------------------------------------|
F#|--------------------------------------------------------------------|
C#|--------------------------------------------------------------------|
G#|-5-5-5-5-5-5-5-5--4-4-4-4-4-4-4-4--9-9-9-9-9-9-9-9--9-9-9-9-9-9-9-9-|
C#|-5-5-5-5-5-5-5-5--4-4-4-4-4-4-4-4--9-9-9-9-9-9-9-9--9-9-9-9-9-9-9-9-|
    x x x x x x x x  x x x x x x x x  x x x x x x x x  x x x x x x x x 

D#|-----------------------------------------------------------------------|
A#|-----------------------------------------------------------------------|
F#|-----------------------------------------------------------------------|
C#|------------------------------------------------------7777777777777777-|
G#|-5555555555555555--4444444444444444--7777777777777777-7777777777777777-|
C#|-5555555555555555--4444444444444444--7777777777777777-7777777777777777-|
    xxxxxxxxxxxxxxxx  xxxxxxxxxxxxxxxx  xxxxxxxxxxxxxxxx


~~~~~~~Solo~~~~~~~


Alex
D#|-----------------------------------------------|
A#|-----------------------------------------------|
F#|-------14-------14-------14-------14-------14--|
C#|-11-12----11-12----11-12----11-12----11-12-----|  x2
G#|-----------------------------------------------|
C#|-----------------------------------------------|

D#|-------------------|
A#|-------------------|
F#|-------14-14-14-14-|
C#|-11-12-------------|
G#|-------------------|
C#|-------------------|

D#|---------------------------------------------------------------|
A#|---------------------------------------------------------------|
F#|-14~--12-11-11h12~---12-11-12-14--12-14-16--14-16-18--16-18-19-|
C#|---------------------------------------------------------------|
G#|---------------------------------------------------------------|
C#|---------------------------------------------------------------|


D#|------------------------------------------------------------|
A#|------------------------------------------------------------|
F#|-18-19-21~---19--18--16--14--12-----------------------------|
C#|---------------------------------161616-16b-14~-1414-141414-|
G#|------------------------------------------------------------|
C#|------------------------------------------------------------|


Jack
D#|---------------------------------------------------------------------|
A#|---------------------------------------------------------------------|
F#|---------------------------------------------------------------------|
C#|-5555555555555555-4444444444444444-9999999999999999-9999999999999999-|
G#|-5555555555555555-4444444444444444-9999999999999999-9999999999999999-|
C#|-5555555555555555-4444444444444444-9999999999999999-9999999999999999-|

D#|--------------------------------------------------------------------|
A#|--------------------------------------------------------------------|
F#|--------------------------------------------------------------------|
C#|-5555555555555555--4444444444444444--7777777777777777-77-77-77-7777-|
G#|-5555555555555555--4444444444444444--7777777777777777-77-77-77-7777-|
C#|-5555555555555555--4444444444444444--7777777777777777-77-77-77-7777-|


~~~~~~~Outro~~~~~~~

Alex
D#|----------------------------------------------------------------------|
A#|--1515151515151515-1010101010101010-1010101010101010-1010101010101010-|
F#|--1414141414141414-9-9-9-9-9-9-9-9--7-7-7-7-7-7-7-7--9-9-9-9-9-9-9-9--|
C#|----------------------------------------------------------------------| x2
G#|----------------------------------------------------------------------|
C#|----------------------------------------------------------------------|


D#|----| |----------|
A#|-8~-| |----------|
F#|-7~-| |----------|
C#|-x~-| |-5555--0~-|
G#|-5~-| |-5555--0~-|
C#|----| |-5555--0~-|
            xx


Jack
D#|---------------------------------------------------------------------|
A#|---------------------------------------------------------------------|
F#|---------------------------------------------------------------------|
C#|-5555555555555555-44444444444444---0000000000000000-9999999977777777-| x2
G#|-5555555555555555-44444444444444---0000000000000000-9999999977777777-|
C#|-5555555555555555-44444444444444---0000000000000000-9999999977777777-|

D#|----| |----------|
A#|----| |----------|
F#|----| |----------|
C#|-5~-| |-5555--0~-|
G#|-5~-| |-5555--0~-|
C#|-5~-| |-5555--0~-|
            xx



-----------------------------------------------------------------------------------------------------
                                     Poppin' Champagne
-----------------------------------------------------------------------------------------------------
Format :

Intro
Verse 1
Chorus
Verse 2
Chorus x2
Bridge
Chorus x2

~~~~~~~Intro~~~~~~~

Jack
D#|---------------------------|
A#|-10------10------10-----10-|
F#|---7-------7---------7-----|
C#|---------------------------| x2
G#|---------------------------|
C#|---------------------------|

D#|-------------------------------------|
A#|-10---10---10---10---8---8---7---7---|
F#|----7----7----7----7---7---7---7---7-|
C#|-------------------------------------| x3
G#|-------------------------------------|
C#|-------------------------------------|
    x  x x  x x  x x  x x x x x x x x x

D#|-----------------------|
A#|-10---10---10---10---8-|
F#|----7----7----7----7-7-|
C#|-----------------------|
G#|-----------------------|
C#|-----------------------|
    x  x x  x x  x x  x x

~~~~~~~Verse 1~~~~~~~

Alex (So follow me down...)
D#|-------------------------------------|
A#|-------------------------------------|
F#|-------------------------------------|
C#|---------------------------------888-|
G#|-44444444-55555555-77777777-88888888-|
C#|-44444444-55555555-77777777-88888888-|
    xxxxxxxx xxxxxxxx xxxxxxxx xxxxx


Jack
D#|-------------------------------------|
A#|-10---10---10---10---8---8---7---7---|
F#|----7----7----7----7---7---7---7---7-|
C#|-------------------------------------| x4
G#|-------------------------------------|
C#|-------------------------------------|

D#|----------------------------|
A#|-7------8------10-----------|
F#|---7~-----7~-----7~---/////-|
C#|----------------------/////-|
G#|----------------------/////-|
C#|----------------------------|
                         Pickslide

~~~~~~~Chorus~~~~~~~

Alex
D#|----------------------------------| |-------------------------------------|
A#|----------------------------------| |-------------------------------------|
F#|----------------------------------| |-------------------------------------|
C#|-0-0-0-0-0-0-0-0--4-4-4-4-5-5-5-5-| |-99999999-77777777-55555555-55555555-|
G#|-0-0-0-0-0-0-0-0--4-4-4-4-5-5-5-5-| |-99999999-77777777-55555555-55555555-|
C#|-0-0-0-0-0-0-0-0--4-4-4-4-5-5-5-5-| |-99999999-77777777-55555555-55555555-|

Jack
D#|--------------------------------| |---------------------------------------------|
A#|--------------------------------| |---------------------------------------------|
F#|-1111111111777-1111111111141414-| |-1111111111111111-99999666-77777777-77777777-|
C#|-x-x-x-x-x-xxx-x-x-x-x-x-x-x-x--| |-x-x-x-x-x-x-x-x--xxxxxxxx-xxxxxxxx-xxxxxxxx-|
G#|-9-9-9-9-9-555-9-9-9-9-9-121212-| |-9-9-9-9-9-9-9-9--77777444-55555555-55555555-|
C#|--------------------------------| |---------------------------------------------|


~~~~~~~Verse 2~~~~~~~

Alex
D#|------------------------------|
A#|------------------------------|
F#|------------------------------|
C#|--------------------------4-5-|
G#|-99999999-77777777-000000-4-5-|
C#|-99999999-77777777-000000-4-5-|
    xxxxxxxx xxxxxxxx xxxxxx

D#|-------------------------------------|
A#|-------------------------------------|
F#|-------------------------------------|
C#|--------------------------4-5-5-5555-|
G#|-99999999-77777777-000000-4-5-5-5555-|
C#|-99999999-77777777-000000-4-5-5-5555-|
    xxxxxxxx xxxxxxxx xxxx

D#|--------------------------------------|
A#|--------------------------------------|
F#|--------------------------------------|
C#|-9-9-9999-7-7-7777-0-0-000-4-5-5-5555-|
G#|-9-9-9999-7-7-7777-0-0-000-4-5-5-5555-|
C#|-9-9-9999-7-7-7777-0-0-000-4-5-5-5555-|

D#|------------------|
A#|------------------|
F#|------------------|
C#|-4~---5~---7---8/-|
G#|-4~---5~---7---8/-|
C#|-4~---5~---7---8/-|

Jack
D#|-------------------------------------|
A#|-10---10---10---10---8---8---7---7---|
F#|----7----7----7----7---7---7---7---7-|
C#|-------------------------------------| x4
G#|-------------------------------------|
C#|-------------------------------------|

D#|---------------------12-12-12-10-10-10-9-9-|
A#|-10-10-10-10-8-8-8-8-----------------------|
F#|-------------------------------------------|
C#|-------------------------------------------| x2
G#|-------------------------------------------|
C#|-------------------------------------------|

D#|--------------------|
A#|-7------8------10---|
F#|---7~-----7~-----7~-|
C#|--------------------|
G#|--------------------|
C#|--------------------|


~~~~~~~Bridge~~~~~~~
Alex (After Jack plays 1st riff twice)
D#|-------------------------------------------------------------|
A#|-------------------------------------------------------------|
F#|-1111111111111111-14141212111199-7771414141414-7771414141414-|
C#|-x-x-x-x-x-x-x-x--x-x-x-x-x-x-xx-xxxx-x-x-x-x--xxxx-x-x-x-x--| x2
G#|-9-9-9-9-9-9-9-9- 121210109-9-77-5551212121212-5551212121212-| 
C#|-------------------------------------------------------------|


Jack
D#|-------------------------------------|
A#|-------------------------------------|
F#|-------------------------------------|
C#|-------------------------------------| x2
G#|-44444444-55555555-00000000-77777777-|
C#|-44444444-55555555-00000000-77777777-|
    xxxxxxxx xxxxxxxx xxxxxxxx xxxxxxxx

D#|------------------------------------|
A#|------------------------------------|
F#|------------------------------------|
C#|-99999999-0000000-77777777-55555555-| x2
G#|-99999999-0000000-77777777-55555555-| 
C#|-99999999-0000000-77777777-55555555-|



-----------------------------------------------------------------------------------------------------
                                    Remembering Sunday
-----------------------------------------------------------------------------------------------------
This song is on an acoustic guitar tuned to standard, with a Capo at fret 2.

Format:

Intro
Verse 1
Chorus
Verse 2
Chorus
Bridge
Chorus
Outro

~~~~~~~Intro~~~~~~

e|-00000000-0000000-00000000-0~--------|
B|-00000000-0000000-33333333-2~--------|
G|-00000000-0000000-00000000-0~--------|
D|-22222222-2222222-22222222-2~--------|
A|-33333333-2222222-33333333-0~--0-2-3-| 
E|-------------------------------------|

~~~~~~~Verse~~~~~~~

e|-00000000-0000000-00000000-00000000-| |-00000000-0000000-00000000-0~-|
B|-00000000-0000000-33333333-22222222-| |-33333333-5555555-33333333-2~-|
G|-00000000-0000000-00000000-00000000-| |-00000000-0000000-00000000-0~-|
D|-22222222-2222222-22222222-22222222-| |-22222222-4444444-22222222-2~-|
A|-33333333-2222222-33333333-00000000-| |-33333333-5555555-33333333-0~-| 
E|------------------------------------| |------------------------------|

e|---------------------------0~-|
B|---------------------------2~-|
G|-00000000-0000000-99999999-0~-|
D|-22222222-4444444-99999999-2~-|
A|-33333333-5555555-77777777-0~-| 
E|------------------------------|
   xxxxxxxx xxxxxxx xxxxxxxx


~~~~~~~Chorus~~~~~~~


e|-33333333-33333333-0000000-3~---3333-|
B|-33333333-33333333-2222222-3~---3333-|
G|-00000000-00000000-0000000-0~---0000-|
D|-00000000-22222222-2222222-2~---2222-|
A|-22222222-33333333-0000000-3~---3333-| 
E|-33333333----------------------------|

e|-33333333-33333333-0000000-3~-|
B|-33333333-33333333-2222222-3~-|
G|-00000000-00000000-0000000-0~-|
D|-00000000-22222222-2222222-2~-|
A|-22222222-33333333-0000000-3~-| 
E|-33333333---------------------|

~~~~~~~Verse 2~~~~~~~

e|------------------------------------|
B|------------------------------------|
G|-00000000-0000000-99999999-99999999-|
D|-22222222-4444444-99999999-99999999-|
A|-33333333-5555555-77777777-77777777-| 
E|------------------------------------|
   xxxxxxxx xxxxxxx xxxxxxxx xxxxxxxx

e|---------------------------0~---000000-|
B|---------------------------2~---222222-|
G|-00000000-0000000-99999999-0~---000000-|
D|-22222222-4444444-99999999-2~---222222-|
A|-33333333-5555555-77777777-0~---000000-| 
E|---------------------------------------|
   xxxxxxxx xxxxxxx xxxxxxxx 

~~~~~~~Bridge~~~~~~~

e|-00000000-33333333-3333333-2~-| |-----0~------3~--------3-------3--22222222-|
B|-00000000-33333333-3333333-3~-| |-----0~------3~--------3-------3--33333333-|
G|-00000000-00000000-0000000-2~-| |-----0~------0~--------0-------0--22222222-|
D|-22222222-22222222-0000000-0~-| |---2----------------0-------0-----00000000-|
A|-22222222-33333333-2222222----| |--2-------3--------2-------2---------------|
E|-00000000----------3333333----| |-0----------------3-------3----------------|

~~~~~~~Outro~~~~~~~

e|---------------------------0~-|
B|---------------------------2~-|
G|-00000000-0000000-00000000-0~-|
D|-22222222-4444444-22222222-2~-|
A|-33333333-5555555-33333333-0~-| 
E|------------------------------|
   xxxxxxxx xxxxxxx xxxxxxxx 



-----------------------------------------------------------------------------------------------------
                                         Therapy
-----------------------------------------------------------------------------------------------------
This song is on an acoustic guitar tuned to standard.

Format :

Main Riff
Verse 1
Chorus
Main Riff
Verse 2
Chorus
Bridge
Chorus
Main Riff

~~~~~~~Main Riff~~~~~~~

e|-------------------------------------------------------------------|
B|-----2h3p2---0--------2h3p2---0-------2-------2--------2h3p2---0---|
G|---2-------2---2----2-------2---2---2---2---2---2----2-------2---2-|
D|------------------0--------------------------------0---------------|
A|-0-----------------------------------------------------------------|
E|----------------------------------2-------0------------------------|


~~~~~~~Verse 1~~~~~~~

e|--------------------------------------|
B|-----2~-------2~-----2~-----2~-----2~-|
G|---2--------2------2------2------2----|
D|---------0---------------------0------| x2
A|-0------------------------------------|
E|----------------2------0--------------|

e|----------------------------------|
B|-----2~-------2~-----2~-----2~----|
G|---2--------2------2------2-------|
D|---------0---------------------0~-|
A|-0--------------------------------|
E|----------------2------0----------|

~~~~~~~Chorus~~~~~~~


e|-00000000-00000000-2222222-22222222~-|
B|-22222222-00000000-2222222-33333333~-|
G|-22222222-11111111-3333333-22222222~-|
D|-22222222-22222222-4444444-00000000~-|
A|-00000000-22222222-4444444-----------| 
E|----------00000000-2222222-----------|

e|-00000000-0~-2222222-22222222~-|
B|-22222222-0~-2222222-33333333~-|
G|-22222222-1~-3333333-22222222~-|
D|-22222222-2~-4444444-00000000~-|
A|-00000000-2~-4444444-----------| 
E|----------0~-2222222-----------|

~~~~~~~Verse 2~~~~~~~

e|--------------------------------------------------------|
B|--------------------------------------------------------|
G|-22-2-2-22-2--77-7-7-77-7-------------------77-7-7-77-7-|
D|-22-2-2-22-2--77-7-7-77-7--44-4-44-22-2-22--77-7-7-77-7-|
A|-00-0-0-00-0--55-5-5-55-5--44-4-44-22-2-22--55-5-5-55-5-| 
E|---------------------------22-2-22-00-0-00--------------|
   xx     x     xx     x     xx      xx       xx     x

e|------------------------------------------------|
B|------------------------------------------------|
G|-22-2-2-22-2--77-7-7-----7-------------------7~-|
D|-22-2-2-22-2--77-7-7-----7--44-4-44-22-2-22--7~-|
A|-00-0-0-00-0--55-5-5-----5--44-4-44-22-2-22--5~-| 
E|----------------------------22-2-22-00-0-00-----|
   xx     x     xx            xx      xx       


~~~~~~~Bridge~~~~~~~

e|-22222222-00000000-00000000-00000000-|
B|-33333333-22222222-00000000-00000000-|
G|-44444444-22222222-11111111-11111111-|
D|-44444444-22222222-22222222-22222222-|
A|-22222222-00000000-22222222-22222222-| 
E|-------------------00000000-00000000-|

e|-22222222-0~---0~----2~--0~--2~-|
B|-33333333-2~---0~----3~--0~--3~-|
G|-44444444-2~---1~----4~--1~--2~-|
D|-44444444-2~---2~----4~--2~--0~-|
A|-22222222-0~---2~----2~--2~-----| 
E|---------------0~--------0~-----|



-----------------------------------------------------------------------------------------------------
                                  Coffee Shop Soundtrack
-----------------------------------------------------------------------------------------------------
Format:

Intro
Verse 1
Chorus
Verse 2
Chorus
Bridge 1
Bridge 2
Chorus


~~~~~~~Intro~~~~~~~

Alex
D#|-------------------------------0~-|
A#|-------------------------------0~-|
F#|-666666----------666666--------0~-|
C#|-666666-77777777-666666-777777----|
G#|-444444-77777777-444444-777777----| 
C#|--------77777777--------777777----|
    xxxxxx xxxxxxxx xxxxxx xxxxxx 

D#|-------------------------------| |---------------------------------|
A#|-------------------------------| |---------------------------------|
F#|-666666----------666666--------| |-----------------4-4-4-4-4-4-4-4-|
C#|-666666-77777777-666666-777777-| |-2-2-2-2-2-2-2-2-4-4-4-4-4-4-4-4-|
G#|-444444-77777777-444444-777777-| |-2-2-2-2-2-2-2-2-2-2-2-2-2-2-2-2-|
C#|--------77777777--------777777-| |-2-2-2-2-2-2-2-2-----------------|

D#|---------------------------| |---------------------------------|
A#|---------5*----------------| |---------------------------------|
F#|-666666------666666--------| |-----------------4-4-4-4-4-4-4-4-|
C#|-666666------666666-777777-| |-2-2-2-2-2-2-2-2-4-4-4-4-4-4-4-4-|
G#|-444444------444444-777777-| |-2-2-2-2-2-2-2-2-2-2-2-2-2-2-2-2-|
C#|--------------------777777-| |-2-2-2-2-2-2-2-2-----------------|

Jack (After Alex plays 1st Riff once)
D#|-------------------------------------| |---------7---------------7-------|
A#|-------------------------------------| |-----5-------5-------5-------5---|
F#|-13131313-13999999-13131313-13999999-| |-------4---4---4-------4---4---4-|
C#|-x-x-x-x--x-xxxxxx-x-x-x-x--x-xxxxxx-| |-6-6-------------4-4-------------|
G#|-11111111-11777777-11111111-11777777-| |---------------------------------|
C#|-------------------------------------| |---------------------------------|

D#|----------0~-------------------| |---------7---------------7-------|
A#|----------0~-------------------| |-----5-------5-------5-------5---|
F#|-13131313-0~-13131313-13999999-| |-------4---4---4-------4---4---4-|
C#|-x-x-x-x-----x-x-x-x--x-xxxxxx-| |-6-6-------------4-4-------------|
G#|-11111111----11111111-11777777-| |---------------------------------|
C#|-------------------------------| |---------------------------------|


~~~~~~~Verse 1~~~~~~~

Alex
D#|------------------------------|
A#|------------------------------|
F#|-9\11\13--9--9--9\11\13--9-11-|
C#|-x\x-\x---x--x--x\x-\x---x-x--|
G#|-7\9-\11--7--6--7\9-\11--7-9--| 
C#|------------------------------|

D#|------------------------------------------------------------------------------|
A#|------------------------------------------------------------------------------|
F#|-999-9-9--999-999---999-9-9--111111-999---999-9-9-999-999--999999111111111111-|
C#|-xxx-x-x--xxx-xxx---xxx-x-x--x-x-x--xxx---xxx-x-x-xxx-xxx--xxxxxxx-x-x-x-x-x--|
G#|-777-7-7--777-777---777-7-7--9-9-9--777---777-7-7-777-777--7777779-9-9-9-9-9--| 
C#|------------------------------------------------------------------------------|
    xx                 xx                    xx                    


Jack
D#|--------------------------------|
A#|--------------------------------|
F#|-9\11\13--14/8\9--16/14/13--\16-|
C#|-x\x-\x---x-/x\x--x-/x-/x---\x--|
G#|-7\9-\11--7-/6\7--9-/11/11--\14-| 
C#|--------------------------------|

D#|----------------------------------------------------------------------|
A#|----------------------------------------------------------------------|
F#|-999-9-9--999-999---141414-14-14--131313-111111---161616-16-16-141414-|
C#|-xxx-x-x--xxx-xxx---x-x-x--x--x---x-x-x--x-x-x----x-x-x--x--x--x-x-x--|
G#|-777-7-7--777-777---121212-12-12--111111-9-9-9----141414-14-14-121212-|
C#|----------------------------------------------------------------------|
    xx       xx        x x                           x x                 |

------------------------------------|
------------------------------------|
131313131314141414-1414161616161616-|
x-x-x-x-x-x-x-x-x--x-x-x-x-x-x-x-x--|
111111111112121212-1212141414141414-| 
------------------------------------|


~~~~~~~Chorus~~~~~~~

Alex
D#|----------------------xxxx----xxxx----------|
A#|----------------------xxxx----xxxx----------|
F#|----------22222222-66-xxxx-44-xxxx-22222222-|
C#|-22222222-22222222-66-xxxx-44-xxxx-22222222-| x2
G#|-22222222-00000000-44-xxxx-22-xxxx-00000000-|
C#|-22222222-------------xxxx----xxxx----------|

Jack
D#|--------------------------------| |--------------------|
A#|--------------------------------| |-12---12---12---12~-|
F#|-1111-1313-9999--1111-1313-9999-| |----9----9----9-----|
C#|-x-x--x-x--xxxx--x-x--x-x--xxxx-| |--------------------|
G#|-9-9--1111-7777--9-9--1111-7777-| |--------------------|
C#|--------------------------------| |--------------------|

D#|---------------------------------------------------| |--------------------|
A#|---------------------------------------------------| |-12---12---12---12~-|
F#|-14141414-13131313--161616161616-14141414-13131313-| |----9----9----9-----|
C#|-x-x-x-x--x-x-x-x---x-x-x-x-x-x--x-x-x-x--x-x-x-x--| |--------------------|
G#|-12121212-11111111--141414141414-12121212-11111111-| |--------------------|
C#|---------------------------------------------------| |--------------------|

Variation for 2nd Chorus:
D#|-----------------------------------------------------| |--------------------|
A#|-----------------------------------------------------| |-12---12---12---12~-|
F#|-14141414-1313131313131313-141414141414-161616161616-| |----9----9----9-----|
C#|-x-x-x-x--x-x-x-x-x-x-x-x--x-x-x-x-x-x--x-x-x-x-x-x--| |--------------------|
G#|-12121212-1111111111111111-121212121212-141414141414-| |--------------------|
C#|-----------------------------------------------------| |--------------------|


~~~~~~~Verse 2~~~~~~~

Alex
D#|-----------| |-------------------------|-------------------|
A#|-----------| |-------------------------|-------------------|
F#|-666666----| |-xxx-6666-5555-4444-3333-|-22222222-44444444-|
C#|-666666-7/-| |-xxx-6666-5555-4444-3333-|-22222222-44444444-|
G#|-444444-7/-| |-xxx-4444-3333-2222-1111-|-00000000-22222222-|
C#|--------7/-| |-------------------------|-------------------|

Jack
D#|-----------------| |------------------------------------------|
A#|-----------------| |------------------------------------------|
F#|-131313131313-9/-| |------------------------------------------|
C#|-131313131313-9/-| |-----9--------9----------8-----------9----|
G#|-111111111111-7/-| |-7-7---7--9-9---9--10-10---10--11-11---11-|
C#|-----------------| |------------------------------------------|

D#|------------------------------|
A#|------------------------------|
F#|------------------------------|
C#|-----9--------9--------9---8~-|
G#|-9-9---9--9-9---9--9-9---9----|
C#|------------------------------|

~~~~~~~Bridge 1~~~~~~~

Alex
D#|------------------------------------| |----------------------------------|
A#|------------------------------------| |----------------------------------|
F#|-6-6-6-6--5-5-5-5--4-4-4-4--3-3-3-3-| |-6-6-6-6--5-5-5-5-----------------|
C#|-6-6-6-6--6-6-6-6--4-4-4-4--4-4-4-4-| |-6-6-6-6--6-6-6-6-7-7-7-7-7-7-7-7-|
G#|-4-4-4-4--3-3-3-3--2-2-2-2--1-1-1-1-| |-4-4-4-4--3-3-3-3-7-7-7-7-7-7-7-7-|
C#|------------------------------------| |------------------7-7-7-7-7-7-7-7-|

D#|------------------------------------| |--------------------------------------| |----|
A#|------------------------------------| |--------------------------------------| |----|
F#|-6-6-6-6--5-5-5-5--4-4-4-4--3-3-3-3-| |-66666666--55555555-------------------| |----|
C#|-6-6-6-6--6-6-6-6--4-4-4-4--4-4-4-4-| |-66666666--66666666-77777777-77777777-| |-22-|
G#|-4-4-4-4--3-3-3-3--2-2-2-2--1-1-1-1-| |-44444444--33333333-77777777-77777777-| |-22-|
C#|------------------------------------| |--------------------77777777-77777777-| |-22-|
                                           xxxxxxx  xxxxxxxx  xxxxxxx
D#|----| |------------|
A#|----| |------------|
F#|----| |---------22-|
C#|-22-| |-22------22-|
G#|-22-| |-22------00-|
C#|-22-| |-22---------|


Jack
D#|--------------------------------------------------|
A#|--------------------------------------------------|
F#|-9-9-9-99--8-8-8-88--11-11-11-1111--13-13-13-1313-|
C#|-x-x-x-xx--x-x-x-xx--x--x--x--x-x---x--x--x--x-x--|
G#|-7-7-7-77--6-6-6-66--9--9--9--9-9---11-11-11-1111-|
C#|--------------------------------------------------|

D#|-----------------------------------------------|
A#|-----------------------------------------------|
F#|-9-9-9-99--8-8-8-88--11-11-11-11-11-11-11111111|
C#|-x-x-x-xx--x-x-x-xx--x--x--x--x--x--x--x-x-x-x-|
G#|-7-7-7-77--6-6-6-66--9--9--9--9--9--9--9-9-9-9-|
C#|-----------------------------------------------|

D#|--------------------------------------------------|
A#|--------------------------------------------------|
F#|-9-9-9-99--8-8-8-88--11-11-11-1111--13-13-13-1313-|
C#|-x-x-x-xx--x-x-x-xx--x--x--x--x-x---x--x--x--x-x--|
G#|-7-7-7-77--6-6-6-66--9--9--9--9-9---11-11-11-1111-|
C#|--------------------------------------------------|

D#|-------------------------------------------------------|
A#|-------------------------------------------------------|
F#|-9-9-9-99--8-8-8-88--1313131313131313-1313131313131313-|
C#|-x-x-x-xx--x-x-x-xx--x-x-x-x-x-x-x-x--x-x-x-x-x-x-x-x--|
G#|-7-7-7-77--6-6-6-66--1111111111111111-111111111111111--|
C#|-------------------------------------------------------|
                          x x x x x x x  x x x x x x x x 
D#|--------------------------------------|
A#|--------------------------------------|
F#|----------22222222-6666-4444-22222222-|
C#|-22222222-22222222-6666-4444-22222222-|
G#|-22222222-00000000-4444-2222-00000000-| x2
C#|-22222222-----------------------------|
    xxxxxxxx xxxx xx  xxxx xxxx xxxxx  x

D#|------------------xxxx----xxxx----------|
A#|------------------xxxx----xxxx----------|
F#|----------2~---66-xxxx-44-xxxx-22222222-|
C#|-22222222-2~---66-xxxx-44-xxxx-22222222-|
G#|-22222222-0~---44-xxxx-22-xxxx-00000000-|
C#|-22222222---------xxxx----xxxx----------|



-----------------------------------------------------------------------------------------------------
                                         Weightless
-----------------------------------------------------------------------------------------------------
There is an additional guitar playing in the song, most likely tuned in Drop C# as well.

Format :

Verse 1
Chorus
Break
Verse 2
Chorus
Break x2
Bridge
Breakdown
Chorus
Break x2

~~~~~~~Verse 1~~~~~~~~~

Alex (Now I'm stuck in this...)
D#|----|----|-------|-------------------|
A#|----|----|-------|-------------------|
F#|----|----|-------|-------------------|
C#|-55-|-00-|-5-555-|-00000000-00000000-|
G#|-55-|-00-|-5-555-|-00000000-00000000-|
C#|-55-|-00-|-5-555-|-00000000-00000000-|
                      xxxxxxxx

Jack
D#|--------------------------------------------------------------------|
A#|--------------------------------------------------------------------|
F#|-0-0-0-0-0-0-0-0--2-2-2-2-2-2-2-2-------------------0-0-0-0-0-0-0-0-|
C#|-----------------------------------0-0-0-0-0-0-0-0------------------| x2
G#|--------------------------------------------------------------------|
C#|--------------------------------------------------------------------|
    x x x x x x x x  x x x x x x x x  x x x x x x x x  x x x x x x x x 

D#|----------------------------------------------------------|
A#|----------------------------------------------------------|
F#|-0-0-0-0-0-0-0-0--2-2-2-2-2-2-2-2-------------------------|
C#|-----------------------------------0-0-0-0-0-0-0-0--/////-|
G#|----------------------------------------------------/////-|
C#|----------------------------------------------------/////-|
                                      x x x x x x x x

Extra
D#|-------|                     |-------------------|
A#|-7-8-7-|                     |-------------------|
F#|-------|                     |-------------------|
C#|-------| (Played Repeatedly) |-00000000-00000000-|
G#|-------|                     |-00000000-00000000-|
C#|-------|                     |-00000000-00000000-|
    x x x                         xxxxxxxx

~~~~~~~Chorus~~~~~~~

Alex
D#|---------------------------------------| |-------------------------------------|
A#|---------------------------------------| |-------------------------------------|
F#|---------------------------------------| |-------------------------------------|
C#|-55555555-00000000-77777777--7-9-/12-4-| |-55555555-00000000-77777777-77777777-|
G#|-55555555-00000000-77777777--7-9-/12-4-| |-55555555-00000000-77777777-77777777-|
C#|-55555555-00000000-77777777--7-9-/12-4-| |-55555555-00000000-77777777-77777777-|

D#|------------------------------------|------------------|
A#|------------------------------------|------------------|
F#|------------------------------------|------------------|
C#|-99999999-7777777-55555555-00000000-|-55555555-7-------|
G#|-99999999-7777777-55555555-00000000-|-55555555-7-------|
C#|-99999999-7777777-55555555-00000000-|-55555555-7---12/-|

Jack
D#|-----------------------------------------------| |-----------------------------------------|
A#|-----------------------------------------------| |-----------------------------------------|
F#|-111111111111-141414141414-99999999--9-11-12-6-| |-77777777-111111111111-99999999-99999999-|
C#|-x-x-x-x-x-x--x-x-x-x-x-x--xxxxxxxx--x-x--x--x-| |-xxxxxxxx-x-x-x-x-x-x--xxxxxxxx-xxxxxxxx-|
G#|-9-9-9-9-9-9--121212121212-77777777--7-9--10-4-| |-55555555-9-9-9-9-9-9--77777777-77777777-|
C#|-----------------------------------------------| |-----------------------------------------|

D#|-----------------------------------------------------|---------------|
A#|-----------------------------------------------------|---------------|
F#|-1414141414141414-1212121212121212-77777777-77777777-|-1111111111-12-|
C#|-x-x-x-x-x-x-x-x--x-x-x-x-x-x-x-x--xxxxxxxx-xxxxxxxx-|-x-x-x-x-x--x--|
G#|-1212121212121212-1010101010101010-55555555-55555555-|-9-9-9-9-9--10-|
C#|-----------------------------------------------------|---------------|

~~~~~~~Break~~~~~~~

Alex
D#|----------------------|
A#|----------------------|
F#|----------------------|
C#|-0~---0--0----0--0--0-|
G#|-0~--00-00--0-0-00-00-|
C#|-0~--00-00--0-0-00-00-|
        x  x   x   x  x

Jack
D#|-------------------------------------|
A#|-------------------------------------|
F#|-77777777-77777777-77777777-77777777-|
C#|-xxxxxxxx-xxxxxxxx-xxxxxxxx-xxxxxxxx-|
G#|-55555555-55555555-55555555-55555555-|
C#|-------------------------------------|

Extra
D#|-17------17------17-------17-----|
A#|----15~-----15~-----15-15----15~-|
F#|---------------------------------|
C#|---------------------------------| x2
G#|---------------------------------|
C#|---------------------------------|


~~~~~~~Verse 2~~~~~~~

Alex (If I could just find...)
D#|---------------------------------------------------------------------|
A#|---------------------------------------------------------------------|
F#|---------------------------------------------------------------------|
C#|------5-----------------------------------------------------00000000-|
G#|------55555555-55555555-77777777-77777777-00000000-00000000-00000000-|
C#|-12/--55555555-55555555-77777777-77777777-00000000-00000000-00000000-|
          xxxxxxx xxxxxxxx xxxxxxxx xxxxxxxx xxxxxxxx xxxxxxxx


Jack (If I could Just find...)
D#|----------------------------------------|
A#|----------------------------------------|
F#|-7-777777--7\9--6-666666--7-7-7-7-/////-|
C#|-x-xxxxxx--x\x--x-xxxxxx--x-x-x-x-/////-|
G#|-5-555555--5\7--4-444444--5-5-5-5-/////-|
C#|----------------------------------------|
      xxxxxx         xxxxxx 

Extra
D#|--------------------------------------------------------------------|
A#|--------------------------------------------------------------------|
F#|-0-0-0-0-0-0-0-0--2-2-2-2-2-2-2-2-------------------0-0-0-0-0-0-0-0-|
C#|-----------------------------------0-0-0-0-0-0-0-0------------------| x2
G#|--------------------------------------------------------------------|
C#|--------------------------------------------------------------------|
    x x x x x x x x  x x x x x x x x  x x x x x x x x  x x x x x x x x 


~~~~~~~Bridge~~~~~~~~

Alex
D#|-----------------------------------------------------------|
A#|-----------------------------------------------------------|
F#|-----------------------------------------------------------|
C#|-22222222-22222222-55555555-55555555--0~---0--0----0--0--0-|
G#|-22222222-22222222-55555555-55555555--0~--00-00--0-0-00-00-|
C#|-22222222-22222222-55555555-55555555--0~--00-00--0-0-00-00-|

D#|------------------------------------------------------------------------|
A#|------------------------------------------------------------------------|
F#|------------------------------------------------------------------------|
C#|-22222222-22222222-55555555-55555555--77777777-77777777-77-77-77-77-7-7-|
G#|-22222222-22222222-55555555-55555555--77777777-77777777-77-77-77-77-7-7-|
C#|-22222222-22222222-55555555-55555555--77777777-77777777-77-77-77-77-7-7-|

Jack (Play twice)
D#|-------------------------------------------------------------|
A#|-------------------------------------------------------------|
F#|-----7-----7-----7-----7-----7-----7-----7-----7-----7-----7-|
C#|-4-5---4-5---4-5---4-5---4-5---7-9---7-9---7-9---7-9---7-9---|
G#|-------------------------------------------------------------|
C#|-------------------------------------------------------------|

D#|-----------------------------------|
A#|-7---7---8---8---10---10---8---8---|
F#|---7---7---7---7----7----7---7---7-|
C#|-----------------------------------|
G#|-----------------------------------|
C#|-----------------------------------|


~~~~~~~Breakdown~~~~~~~

Jack
D#|---------------------|
A#|---------------------|
F#|---------------------|
C#|-0~---2~---5~---0~---|
G#|-0~---2~---5~---0~---|
C#|-0~---2~---5~---0~---|



-----------------------------------------------------------------------------------------------------
                                          Too Much
-----------------------------------------------------------------------------------------------------
Format :

Intro 
Verse 1
Chorus (No guitar up to this point)
Verse 2
Chorus
Bridge
Chorus

~~~~~~~Verse 2~~~~~~~

Alex
D#|-------------------------------------|
A#|-------------------------------------|
F#|-88888888----------66666666-66666666-|
C#|-88888888-33333333-66666666-66666666-| x6
G#|-66666666-33333333-44444444-44444444-|
C#|----------33333333-------------------|
    xxxxxxxx xxxxxxxx xxxxxxxx xxxxxxxx

Jack
D#|-------------------------| |-------------------------------------------------|
A#|-------------16----------| |-16----16----16----16----14----14----13----13----|
F#|-12-13-12-13----13-12-13-| |----13----13----13----13----13----13----13----13-|
C#|-------------------------| |-------------------------------------------------|
G#|-------------------------| |-------------------------------------------------|
C#|-------------------------| |-------------------------------------------------|


~~~~~~~Chorus~~~~~~~

Alex
D#|--------------------|   |-----------------------------------|
A#|--------------------|   |-----------------------------------|
F#|-8~--------6~---666-|   |-101010101010-888888--------666666-|
C#|-8~---3~---6~---666-| x2|-101010101010-888888-666666-666666-|
G#|-6~---3~---4~---444-|   |-8-8-8-8-8-8--666666-666666-444444-|
C#|------3~------------|   |---------------------666666--------|

D#|-------------------------------------|
A#|-------------------------------------|
F#|-88888888----------66666666-66666666-|
C#|-88888888-33333333-66666666-66666666-| x6
G#|-66666666-33333333-44444444-44444444-|
C#|----------33333333-------------------|
    xxxxxxxx xxxxxxxx xxxxxxxx xxxxxxxx

Jack
D#|-------------|     |-------------------------------------------------|
A#|-16----------|     |-16----16----16----16----14----14----13----13----|
F#|----13-12-13-|     |----13----13----13----13----13----13----13----13-|
C#|-------------| x16 |-------------------------------------------------| x2
G#|-------------|     |-------------------------------------------------|
C#|-------------|     |-------------------------------------------------|

D#|-------------|     
A#|-16----------|     
F#|----13-12-13-|    
C#|-------------| x16
G#|-------------|     
C#|-------------|    

~~~~~~~Bridge~~~~~~~

Alex
D#|-----------------------------------------------------------------------------------------|
A#|-----------------------------------------------------------------------------------------|
F#|-1010101010101010-1010101010101010-99999999-99999999-------------------------------------|
C#|-1010101010101010-1010101010101010-99999999-99999999-66666666-66666666-88888888-88888888-|
G#|-8-8-8-8-8-8-8-8--8-8-8-8-8-8-8-8--77777777-77777777-66666666-66666666-88888888-88888888-|
C#|-----------------------------------------------------66666666-66666666-88888888-88888888-|

D#|-------------------------------------|
A#|-------------------------------------|
F#|-66666666-66666666-88888888-99999999-|
C#|-66666666-66666666-88888888-99999999-|
G#|-44444444-44444444-66666666-77777777-|
C#|-------------------------------------|


Jack
D#|-----------------------------------------------------------------|
A#|-----------------------------------------------------------------|
F#|-1313131313131313-1212121313131515-13131312121212-13131312121212-|
C#|-x-x-x-x-x-x-x-x--x-x-x-x-x-x-x-x--x-x-x-x-x-x-x--x-x-x-x-x-x-x--|
G#|-1111111111111111-1010101111111313-11111110101010-11111110101010-|
C#|-----------------------------------------------------------------|

D#|--------------------------------------------------------|
A#|--------------------------------------------------------|
F#|-10101010-13/12-10101010-13/12--5555-6666-8888-10101010-|
C#|-x-x-x-x--x-/x--x-x-x-x--x-/x---xxxx-xxxx-xxxx-x-x-x-x--|
G#|-8-8-8-8--11/10-8-8-8-8--11/10--3333-4444-6666-8-8-8-8--|
C#|--------------------------------------------------------|

D#|----------------------------------------------------------------------------|
A#|----------------------------------------------------------------------------|
F#|-1313131313131313-1515151513131313-12\13-12\13-12\13-12\13-1515151516161616-|
C#|-x-x-x-x-x-x-x-x--x-x-x-x-x-x-x-x--x-\x--x-\x--x-\x--x-\x--x-x-x-x-x-x-x-x--|
G#|-1111111111111111-1313131311111111-10\11-10\11-10\11-10\11-1313131314141414-|
C#|----------------------------------------------------------------------------|



-----------------------------------------------------------------------------------
                              Damned if I Do Ya (Damned if I Don't) 
-----------------------------------------------------------------------------------
Format :

Main Riff
Verse
Chorus
Main Riff
Verse
Chorus
Bridge
Chorus x2
Main Riff


~~~~~~~Main Riff~~~~~~

Alex
D#|----||----------------------------------------|
A#|----||----------------------------------------|
F#|-5*-||-----2222--44\66/444------2222--66/4444-|
C#|----||-222-2222--xx\xx/xxx--222-2222--xx/xxxx-| x2
G#|----||-222-0000--22\44/222--222-0000--44/2222-| 
C#|----||-222------------------222---------------|


Jack
D#|----------------------------------------|
A#|----------------------------------------|
F#|-9-9-9-9-9-9-9-9\11--9-9-9-9-9-9-9-9\11-|
C#|-x-x-x-x-x-x-x-x\x---x-x-x-x-x-x-x-x\x--| (Only play this for the first main riff)
G#|-7-7-7-7-7-7-7-7\9---7-7-7-7-7-7-7-7\9--|
C#|----------------------------------------|

D#|-12----12----12----12----12----12----12----14----|
A#|----12----12----12----12----12----12----12----12-|
F#|-------------------------------------------------|
C#|-------------------------------------------------| (Repeated)
G#|-------------------------------------------------|
C#|-------------------------------------------------|


~~~~~~~Verse~~~~~~~

Alex (You left me, police tape...)
D#|-----------------------------------------------|
A#|-----------------------------------------------|
F#|-----------4444-666-6/4-----------4444-444-6/4-|
C#|-7777-2222-4444-666-6/4-7777-2222-4444-444-6/4-|
G#|-7777-2222-2222-444-4/2-7777-2222-2222-222-4/2-|
C#|-7777-2222--------------7777-2222--------------|
    xxxx xxxx xxxx xxx     xxxx xxxx xxxx xxx

D#|------------------------------------------|
A#|------------------------------------------|
F#|-----------4444-666-6/4-77777777-44444444-|
C#|-7777-2222-4444-666-6/4-77777777-44444444-|
G#|-7777-2222-2222-444-4/2-55555555-22222222-|    
C#|-7777-2222--------------------------------|
    xxxx xxxx xxxx xxx     xxxxxxxx xxxxxxxx

Jack
D#|-----------------------------------------|
A#|-----------------------------------------|
F#|------9999-4444-6666------9999-4444-4444-|
C#|-7777-9999-4444-6666-7777-9999-4444-4444-|
G#|-7777-7777-2222-4444-7777-7777-2222-2222-|
C#|-7777----------------7777----------------|
    xxxx xxxx xxxx xxxx xxxx xxxx xxxx xxxx

D#|---------------------------------------|
A#|---------------------------------------|
F#|------9999-4444-6666-77777777-44444444-|
C#|-7777-9999-4444-6666-77777777-44444444-|
G#|-7777-7777-2222-4444-55555555-22222222-|    
C#|-7777----------------------------------|
    xxxx xxxx xxxx xxxx xxxxxxxx xxxxxxxx

D#|------------------------------------|
A#|-----9-----7---7-------10-----9---9-|
F#|-9-9---9-9---9-----9-9----9-9---9---|
C#|------------------------------------| (For 2nd Verse)
G#|------------------------------------|
C#|------------------------------------|

~~~~~~~Chorus~~~~~~~

Alex
D#|-------------------------------------|----------------------------|
A#|-------------------------------------|----------------------------|
F#|----------22222222-66666666-44444444-|-66666666-22222222-44444444-|
C#|-22222222-22222222-66666666-44444444-|-66666666-22222222-44444444-| (Only for 2nd last Chorus)
G#|-22222222-00000000-44444444-22222222-|-44444444-00000000-22222222-|
C#|-22222222----------------------------|----------------------------|

D#|-------------------------------------|----------------------|
A#|-------------------------------------|----------------------|
F#|----------22222222-66666666-44444444-|-66666666-22222222-22-|
C#|-22222222-22222222-66666666-44444444-|-66666666-22222222-22-|
G#|-22222222-00000000-44444444-22222222-|-44444444-00000000-00-|
C#|-22222222----------------------------|----------------------|


Jack
D#|-12----12----12----12----12----12----12----14----|
A#|----12----12----12----12----12----12----12----12-|
F#|-------------------------------------------------|
C#|-------------------------------------------------| (Repeated)
G#|-------------------------------------------------|
C#|-------------------------------------------------|

~~~~~~~Bridge~~~~~~~

Alex
D#|-----------------------------------------------------| |-----0--------|
A#|-----------------------------------------------------| |-------0------|
F#|-222222-444666-222222-444666-222222-999888-222222222-| |-2~------2----|
C#|-222222-444666-222222-444666-222222-999888-222222222-| |-2~--------2~-|
G#|-000000-222444-000000-222444-000000-777666-000000000-| |-0~-----------|
C#|-----------------------------------------------------| |--------------|

Jack
D#|------------------------------------------| |-------------------------|
A#|------------------------------------------| |-------------------------|
F#|-999999-111111131313--999999-131313111111-| |-999999-111111131313--9~-|
C#|-xxxxxx-x-x-x-x-x-x---xxxxxx-x-x-x-x-x-x--| |-xxxxxx-x-x-x-x-x-x---x~-|
G#|-777777-9-9-9-111111--777777-1111119-9-9--| |-777777-9-9-9-111111--7~-|
C#|------------------------------------------| |-------------------------|



-----------------------------------------------------------------------------------
                                  Dear Maria, Count Me In
-----------------------------------------------------------------------------------
Format :

Intro
Verse
Chorus
Main Riff
Verse
Chorus
Bridge
Chorus x2
Outro

~~~~~~~Intro~~~~~~~

Alex
D#|--------------------------------|
A#|--------------------------------|
F#|--------------------------------|
C#|-44444444--------5~-------------|
G#|-22222222-55555555~-----------7-|
C#|----------55555555~-----------7-|
    xxxxxxxx xxxxxxx

D#|-------------------------------------|
A#|-------------------------------------|
F#|-------------------------------------|
C#|-55555555-77777777-00000000-44444444-|
G#|-55555555-77777777-00000000-44444444-|
C#|-55555555-77777777-00000000-44444444-|

Jack
D#|----------------------------------------|-----------------------------------|
A#|----------------------------------------|-----------------------------------|
F#|-66-7-111111111111111-1212-1111-99-66-7-|-111111111111111-1212-1111-99-1414-|
C#|-xx-x-x-x-x-x-x-x-x-x--x-x--x-x-xx-xx-x-|-x-x-x-x-x-x-x-x--x-x--x-x-xx--x-x-|
G#|-44-5-9-9-9-9-9-9-9-9-1010--9-9-77-44-5-|-9-9-9-9-9-9-9-9-1010--9-9-77-1212-|
C#|----------------------------------------|-----------------------------------|

D#|-----------------------------------|---------------------------|
A#|-----------------------------------|---------------------------|
F#|-111111111111111-1212-1111-99-66-7-|-99999999-1212121212121212-|
C#|-x-x-x-x-x-x-x-x--x-x--x-x-xx-xx-x-|-xxxxxxxx-x-x-x-x-x-x-x-x--|
G#|-9-9-9-9-9-9-9-9-1010--9-9-77-44-5-|-77777777-1010101010101010-|
C#|-----------------------------------|---------------------------|


~~~~~~~Verse~~~~~~~~

Chords for verses :
D#|------------------|
A#|------------------|
F#|--------------2-3-|
C#|--0---5---2---2-3-|
G#|--0---5---2---0-1-|
C#|--0---5---2-------|


~~~~~~~Chorus~~~~~~~

Alex
D#|-----------------------------------------------------------------------|
A#|-----------------------------------------------------------------------|
F#|--4444444444444444-----------------------------------2222222222222222--|
C#|--4444444444444444-5555555555555555-0000000000000000-2222222222222222--|
G#|--2222222222222222-5555555555555555-0000000000000000-0000000000000000--|
C#|-------------------5555555555555555-0000000000000000-------------------|

Jack
D#|------------------------------------------------------------------|
A#|-7---7---8---8---10---10---8---8---5---5---7---7--5---5---5---5---|
F#|---7---7---7---7----7----7---7---7---7---7---7--7---7---7---6---6-|
C#|------------------------------------------------------------------|
G#|------------------------------------------------------------------|
C#|------------------------------------------------------------------|

~~~~~~~Bridge~~~~~~~

Rhythm
D#|--------------------------| |---------------------------|
A#|--------------------------| |---------------------------|
F#|--------------------------| |---------------------------|
C#|-00---77--44--55---55--77-| |-77--44--55555555-77777777-|
G#|-00--777--44--55---55--77-| |-77--44--55555555-77777777-|
C#|-00--777--44--55---55--77-| |-77--44--55555555-77777777-|
        x                                xxxxxxxx xxxxxxxx


Lead
D#|-10----10----10----10----10----10----12----12----|
A#|----10----10----10----10----10----10----10----10-|
F#|-------------------------------------------------|
C#|-------------------------------------------------|
G#|-------------------------------------------------|
C#|-------------------------------------------------|

D#|-10----10----10----10-----------------|
A#|----10----10----10----10--7---7-5555~-|
F#|----------------------------7---------|
C#|--------------------------------------|
G#|--------------------------------------|
C#|--------------------------------------|


~~~~~~~Outro~~~~~~~

Both
D#|--------------------------------| |--------|
A#|--------------------------------| |--------|
F#|--4~-------2~--222222222222222--| |--------|
C#|--4~-5~-0~-2~--222222222222222--| |-0-0-0~-|
G#|--2~-5~-0~-0~--000000000000000--| |-0-0-0~-|
C#|-----5~-0~----------------------| |-0-0-0~-|


-----------------------------------------------------------------------------------
This marks the end of the tab. Please let me know if you've spotted any mistakes 
and I will rectify them immediately.
comments
print report bad tab
I want to post or [tab]
guest
You may want to rate the tab now too:
select rating
Please do not post tabs as comments. Select "correction" instead!