Oops, an error
Loading. Please wait.

Thanks To You Tab

ver1
ver1

Whole song

More versions @911Tabs.com
1,549 views 21 this week
1 commentread comment
1 2 3 4 5
excellent!
x 3
add to favorites launch autoscroll
font size
0
reset
Autoscroll
+/-
esc
set tempo
stop
Contributor
Difficulty
Tuning
intermediate
D A D G B E
WARNING: You are trying to view
                                    content from Ultimate-Guitar.com
                                    in an unauthorized application,
                                    which is prohibited.

                                    Please use an official Ultimate
                                    Guitar Tabs application for iPhone,
                                    iPad or Android to access legitimate
                                    chords, guitar, bass, and drum tabs
                                    from Ultimate-Guitar.com database.

                                    Type "ultimate guitar tabs" in Apple
                                    App Store's or Android Market's
                                    search to find the application.
Tabbed by: Joshua Garcia (joshuag523@aol.com)

Tabs for the song: Thanks to You by All Time Low
Please rate and let me know if you have any corrections. Thank you.


Tuning: Drop D (D A D G B E)


Intro
Guitar 1/2:
E||-------|
B||-------|
G||-------|
D||--x-x--|
A||--x-x--|
D||--x-x--|


Guitar 1:
E||--------------------------|-----------------------------|
B||--------------------------|-----------------------------|
G||--6b7r6b7r6-----6b7r6-----|--6b7r6b7r6-----6b7r6--------|
D||-------------4---------4--|-------------4----------4h7--|
A||--------------------------|-----------------------------|
D||--------------------------|-----------------------------|


E||--------------------------|--------------------------|
B||--------------------------|--5--------5--------------|
G||--6b7r6b7r6-----6b7r6-----|-----7--------7-----------|
D||-------------4---------4--|--------7--------7--55\4--|
A||--------------------------|--------------------------|
D||--------------------------|--------------------------|


Guitar 2:
E||--------------------------------------------------------------------------------------------|
B||--------------------------------------------------------------------------------------------|
G||--------------------------------------------------------------------------------------------|
D||--0~--------0---0-----0---7~--\---7---7-----7---4~--\---4---4-----4---5~--\---5---5------7--|
A||--0~--------0---0-----0---7~--\---7---7-----7---4~--\---4---4-----4---5~--\---5---5------7--|
D||--0~---16\--0--00----00---7~--\---7--77----77---4~--\---4--44----44---5~--\---5--55----557--|
                  .     .               .     .               .     .               .     ..




Guitar 1:
E||--------------------------|-----------------------------|
B||--------------------------|-----------------------------|
G||--6b7r6b7r6-----6b7r6-----|--6b7r6b7r6-----6b7r6--------|
D||-------------4---------4--|-------------4----------4h7--|
A||--------------------------|-----------------------------|
D||--------------------------|-----------------------------|


E||--------------------------|--------------------------|
B||--------------------------|--5--------5--------------|
G||--6b7r6b7r6-----6b7r6-----|-----7--------7-----------|
D||-------------4---------4--|--------7--------7--55h7--|
A||--------------------------|--------------------------|
D||--------------------------|--------------------------|


Guitar 2 (Dub):
E||-----------------------------|-----------------------------|
B||-----------------------------|-----------------------------|
G||--9b11r9b11r9--7--9b11r9--7--|--9b11r9b11r9--7--9b11r9--7--|
D||-----------------------------|-----------------------------|
A||-----------------------------|-----------------------------|
D||-----------------------------|-----------------------------|


E||-----------------------------|---------------------7--9--|
B||-----------------------------|--8--7-----8--7--10--------|
G||--9b11r9b11r9--6--9b11r9--6--|--------7------------------|
D||-----------------------------|---------------------------|
A||-----------------------------|---------------------------|
D||-----------------------------|---------------------------|


Guitar 3:
E||--------------------------------------------------------------------------------------------|
B||--------------------------------------------------------------------------------------------|
G||--------------------------------------------------------------------------------------------|
D||--0~--------0---0-----0---7~--\---7---7-----7---4~--\---4---4-----4---5~--\---5---5------7--|
A||--0~--------0---0-----0---7~--\---7---7-----7---4~--\---4---4-----4---5~--\---5---5------7--|
D||--0~---16\--0--00----00---7~--\---7--77----77---4~--\---4--44----44---5~--\---5--55----557--|
                  .     .               .     .               .     .               .     ..



Verse
Guitar 1:
E||------------------------------------------------------------------------------------|
B||------------------------------------------------------------------------------------|
G||--7----7----7---77--7-7----7----7---77--7-7----7----7---77--7-7----7----------------|
D||--x----x----x---xx--x-x----x----x---xx--x-x----x----x---xx--x-x----x----5--5-----7--| x2
A||--5----5----5---55--5-5----5----5---55--5-5----5----5---55--5-5----5----5--5-----7--|
D||------------------------------------------------------------------------5555---777--|
                                                                            ..    ..

Guitar 2:
E||------------------------------------------------------------------------------------|
B||------------------------------------------------------------------------------------|
G||--------------------6-7----7----7---77----------------------------------------------|
D||--9----9----9---99--6-7----7----7---77--4-5----5----5---55--0-5----5----5--5-----7--| x2
A||--9----9----9---99--4-5----5----5---55--4-5----5----5---55--0-5----5----5--5-----7--|
D||--9----9----9---99----------------------4-5----5----5---55--0-5----5----5555---777--|
                                                                            ..    ..



Pre-Chorus
Guitar 1/2:
E||------------------------------------------------------------------------------|
B||------------------------------------------------------------------------------|
G||------------------------------------------------------------------------------|
D||--2--2--2--2--2--2--2--2--9--9--9--9--7--7--7--7--2--2--2--2--2--2--2--2--7~--|
A||--2--2--2--2--2--2--2--2--9--9--9--9--7--7--7--7--2--2--2--2--2--2--2--2--7~--|
D||--2--2--2--2--2--2--2--2--9--9--9--9--7--7--7--7--2--2--2--2--2--2--2--2--7~--|


E||-------|
B||-------|
G||-------|
D||--x-x--|
A||--x-x--|
D||--x-x--|



Chorus
Guitar 1:
E||--------14----------14----------14----------14----------14----------14----------15-----|
B||--15----------15----------15----------15----------14----------14----------15-----------|
G||-----14----14----14----14----16----16----16----16----14----14----14----14----16----16--|
D||---------------------------------------------------------------------------------------|
A||---------------------------------------------------------------------------------------|
D||---------------------------------------------------------------------------------------|


Guitar 2:
E||-------------------------------------------------------------------------------|
B||-------------------------------------------------------------------------------|
G||-------------------------------------------------------------------------------|
D||--0----0----0--00--000---7----7----7--77--777---4----4----4--44--444---5----5--|
A||--0----0----0--00--000---7----7----7--77--777---4----4----4--44--444---5----5--|
D||--0----0----0--00--000---7----7----7--77--777---4----4----4--44--444---5----5--|



Guitar 1:
E||---------------------|
B||---------------------|
G||-------16------------|
D||---------------------|
A||--1414------1414-16--|
D||---------------------|
     . .       . .

Guitar 2 (Dub):
E||---------------------|
B||---------------------|
G||-------12------------|
D||---------------------|
A||--1010------1010-12--|
D||---------------------|
     . .       . .

Guitar 3:
E||--------------|
B||--------------|
G||--------------|
D||--5--5-----7--|
A||--5--5-----7--|
D||--5555---777--|
      ..    ..



Guitar 1:
E||--------14----------14----------14----------14----------14----------14----------15-----|
B||--15----------15----------15----------15----------14----------14----------15-----------|
G||-----14----14----14----14----16----16----16----16----14----14----14----14----16----16--|
D||---------------------------------------------------------------------------------------|
A||---------------------------------------------------------------------------------------|
D||---------------------------------------------------------------------------------------|


Guitar 2:
E||-------------------------------------------------------------------------------|
B||-------------------------------------------------------------------------------|
G||-------------------------------------------------------------------------------|
D||--0----0----0--00--000---7----7----7--77--777---4----4----4--44--444---5----5--|
A||--0----0----0--00--000---7----7----7--77--777---4----4----4--44--444---5----5--|
D||--0----0----0--00--000---7----7----7--77--777---4----4----4--44--444---5----5--|



Guitar 1:
E||-----------------------|
B||-----------------------|
G||-------16--------------|
D||-----------------------|
A||--1414------1414-16-\--|
D||-----------------------|
     . .       . .

Guitar 2 (Dub):
E||-----------------------|
B||-----------------------|
G||-------12--------------|
D||-----------------------|
A||--1010------1010-12-\--|
D||-----------------------|
     . .       . .

Guitar 3:
E||----------------|
B||----------------|
G||----------------|
D||--5--5-----7-\--|
A||--5--5-----7-\--|
D||--5555---777-\--|
      ..    ..


Guitar 1/2:
E||-------|
B||-------|
G||-------|
D||--x-x--|
A||--x-x--|
D||--x-x--|



Pre-Verse
Guitar 1:
E||--------------------------|-----------------------------|
B||--------------------------|-----------------------------|
G||--6b7r6b7r6-----6b7r6-----|--6b7r6b7r6-----6b7r6--------|
D||-------------4---------4--|-------------4----------4h7--|
A||--------------------------|-----------------------------|
D||--------------------------|-----------------------------|


E||--------------------------|--------------------------|
B||--------------------------|--5--------5--------------|
G||--6b7r6b7r6-----6b7r6-----|-----7--------7-----------|
D||-------------4---------4--|--------7--------7--55h7--|
A||--------------------------|--------------------------|
D||--------------------------|--------------------------|


Guitar 2 (Dub):
E||-----------------------------|-----------------------------|
B||-----------------------------|-----------------------------|
G||--9b11r9b11r9--7--9b11r9--7--|--9b11r9b11r9--7--9b11r9--7--|
D||-----------------------------|-----------------------------|
A||-----------------------------|-----------------------------|
D||-----------------------------|-----------------------------|


E||-----------------------------|---------------------7--9--|
B||-----------------------------|--8--7-----8--7--10--------|
G||--9b11r9b11r9--6--9b11r9--6--|--------7------------------|
D||-----------------------------|---------------------------|
A||-----------------------------|---------------------------|
D||-----------------------------|---------------------------|


Guitar 3:
E||--------------------------------------------------------------------------------------------|
B||--------------------------------------------------------------------------------------------|
G||--------------------------------------------------------------------------------------------|
D||--0~--------0---0-----0---7~--\---7---7-----7---4~--\---4---4-----4---5~--\---5---5------7--|
A||--0~--------0---0-----0---7~--\---7---7-----7---4~--\---4---4-----4---5~--\---5---5------7--|
D||--0~---16\--0--00----00---7~--\---7--77----77---4~--\---4--44----44---5~--\---5--55----557--|
                  .     .               .     .               .     .               .     ..



Verse
Guitar 1:
E||----------------------------------------------------------------------|
B||----------------------------------------------------------------------|
G||--7----7----7---77--7-7----7----7---77--7-7----7----7---77--7-7----7--|
D||--x----x----x---xx--x-x----x----x---xx--x-x----x----x---xx--x-x----x--|
A||--5----5----5---55--5-5----5----5---55--5-5----5----5---55--5-5----5--|
D||----------------------------------------------------------------------|


Guitar 2:
E||----------------------------------------------------------------------|
B||----------------------------------------------------------------------|
G||--------------------6-7----7----7---77--------------------------------|
D||--9----9----9---99--6-7----7----7---77--4-5----5----5---55--0-5----5--|
A||--9----9----9---99--4-5----5----5---55--4-5----5----5---55--0-5----5--|
D||--9----9----9---99----------------------4-5----5----5---55--0-5----5--|


Guitar 1:
E||---------------------|
B||---------------------|
G||-------16------------|
D||---------------------|
A||--1414------1414-16--|
D||---------------------|
     . .       . .

Guitar 2 (Dub):
E||---------------------|
B||---------------------|
G||-------12------------|
D||---------------------|
A||--1010------1010-12--|
D||---------------------|
     . .       . .

Guitar 3:
E||--------------|
B||--------------|
G||--------------|
D||--5--5-----7--|
A||--5--5-----7--|
D||--5555---777--|
      ..    ..



Guitar 1:
E||----------------------------------------------------------------------|
B||----------------------------------------------------------------------|
G||--7----7----7---77--7-7----7----7---77--7-7----7----7---77--7-7----7--|
D||--x----x----x---xx--x-x----x----x---xx--x-x----x----x---xx--x-x----x--|
A||--5----5----5---55--5-5----5----5---55--5-5----5----5---55--5-5----5--|
D||----------------------------------------------------------------------|


Guitar 2:
E||----------------------------------------------------------------------|
B||----------------------------------------------------------------------|
G||--------------------6-7----7----7---77--------------------------------|
D||--9----9----9---99--6-7----7----7---77--4-5----5----5---55--0-5----5--|
A||--9----9----9---99--4-5----5----5---55--4-5----5----5---55--0-5----5--|
D||--9----9----9---99----------------------4-5----5----5---55--0-5----5--|


Guitar 1:
E||-----------------------|
B||-----------------------|
G||-------16--------------|
D||-----------------------|
A||--1414------1414-16-\--|
D||-----------------------|
     . .       . .

Guitar 2 (Dub):
E||-----------------------|
B||-----------------------|
G||-------12--------------|
D||-----------------------|
A||--1010------1010-12-\--|
D||-----------------------|
     . .       . .

Guitar 3:
E||----------------|
B||----------------|
G||----------------|
D||--5--5-----7-\--|
A||--5--5-----7-\--|
D||--5555---777-\--|
      ..    ..



Pre-Chorus
Guitar 1/2:
E||------------------------------------------------------------------------------|
B||------------------------------------------------------------------------------|
G||------------------------------------------------------------------------------|
D||--2--2--2--2--2--2--2--2--9--9--9--9--7--7--7--7--2--2--2--2--2--2--2--2--7~--|
A||--2--2--2--2--2--2--2--2--9--9--9--9--7--7--7--7--2--2--2--2--2--2--2--2--7~--|
D||--2--2--2--2--2--2--2--2--9--9--9--9--7--7--7--7--2--2--2--2--2--2--2--2--7~--|


E||-------|
B||-------|
G||-------|
D||--x-x--|
A||--x-x--|
D||--x-x--|



Chorus
Guitar 1:
E||--------14----------14----------14----------14----------14----------14----------15-----|
B||--15----------15----------15----------15----------14----------14----------15-----------|
G||-----14----14----14----14----16----16----16----16----14----14----14----14----16----16--|
D||---------------------------------------------------------------------------------------|
A||---------------------------------------------------------------------------------------|
D||---------------------------------------------------------------------------------------|


Guitar 2:
E||-------------------------------------------------------------------------------|
B||-------------------------------------------------------------------------------|
G||-------------------------------------------------------------------------------|
D||--0----0----0--00--000---7----7----7--77--777---4----4----4--44--444---5----5--|
A||--0----0----0--00--000---7----7----7--77--777---4----4----4--44--444---5----5--|
D||--0----0----0--00--000---7----7----7--77--777---4----4----4--44--444---5----5--|



Guitar 1:
E||---------------------|
B||---------------------|
G||-------16------------|
D||---------------------|
A||--1414------1414-16--|
D||---------------------|
     . .       . .

Guitar 2 (Dub):
E||---------------------|
B||---------------------|
G||-------12------------|
D||---------------------|
A||--1010------1010-12--|
D||---------------------|
     . .       . .

Guitar 3:
E||--------------|
B||--------------|
G||--------------|
D||--5--5-----7--|
A||--5--5-----7--|
D||--5555---777--|
      ..    ..



Guitar 1:
E||--------14----------14----------14----------14----------14----------14----------15-----|
B||--15----------15----------15----------15----------14----------14----------15-----------|
G||-----14----14----14----14----16----16----16----16----14----14----14----14----16----16--|
D||---------------------------------------------------------------------------------------|
A||---------------------------------------------------------------------------------------|
D||---------------------------------------------------------------------------------------|


Guitar 2:
E||-------------------------------------------------------------------------------|
B||-------------------------------------------------------------------------------|
G||-------------------------------------------------------------------------------|
D||--0----0----0--00--000---7----7----7--77--777---4----4----4--44--444---5----5--|
A||--0----0----0--00--000---7----7----7--77--777---4----4----4--44--444---5----5--|
D||--0----0----0--00--000---7----7----7--77--777---4----4----4--44--444---5----5--|



Guitar 1:
E||-----------------------|
B||-----------------------|
G||-------16--------------|
D||-----------------------|
A||--1414------1414-16-\--|
D||-----------------------|
     . .       . .

Guitar 2 (Dub):
E||-----------------------|
B||-----------------------|
G||-------12--------------|
D||-----------------------|
A||--1010------1010-12-\--|
D||-----------------------|
     . .       . .

Guitar 3:
E||----------------|
B||----------------|
G||----------------|
D||--5--5-----7-\--|
A||--5--5-----7-\--|
D||--5555---777-\--|
      ..    ..


Guitar 1/2:
E||-------|
B||-------|
G||-------|
D||--x-x--|
A||--x-x--|
D||--x-x--|



Guitar 2:
E||--------|
B||--------|
G||--7~-\--|
D||--7~-\--|
A||--5~-\--|
D||--------|




Bridge
Guitar 1:
E||---------------------------------|---------------------------------|
B||---------------------------------|---------------------------------|
G||--------------------------4-6-7--|--------------------------4-6-7--|
D||--0---0-0-4-0-0-5-0-0-7-0--------|--0---0-0-4-0-0-5-0-0-7-0--------|
A||---------------------------------|---------------------------------|
D||---------------------------------|---------------------------------|


Guitar 2:
E||---------------------------------|---------------------------------|
B||---------------------------------|---------------------------------|
G||---------------------------------|---------------------------------|
D||---------------------------------|---------------------------------|
A||---------------------------------|--------------------------2-4-5--|
D||---------------------------------|---------------------------------|




Guitar 1:
E||---------------------------------|---------------------------------|
B||---------------------------------|---------------------------------|
G||--------------------------4-6-7--|--------------------------4-6-7--|
D||--0---0-0-4-0-0-5-0-0-7-0--------|--0---0-0-4-0-0-5-0-0-7-0--------|
A||---------------------------------|---------------------------------|
D||---------------------------------|---------------------------------|


E||---------------------------------|----------------------------------|
B||---------------------------------|--------------------------7-8-10--|
G||--------------------------4-6-7--|----------6-----7-----9-----------|
D||--0---0-0-4-0-0-5-0-0-7-0--------|--7---7-7---7-7---7-7---7---------|
A||---------------------------------|----------------------------------|
D||---------------------------------|----------------------------------|


Guitar 2:
A||---------------------------------|---------------------------------|
D||---------------------------------|---------------------------------|
E||---------------------------------|---------------------------------|
B||---------------------------------|---------------------------------|
G||--------------------------2-4-5--|--------------------------2-4-5--|
D||--0---0-0-4-0-0-5-0-0-7-0--------|--0---0-0-4-0-0-5-0-0-7-0--------|


E||---------------------------------|---------------------------------|
B||---------------------------------|---------------------------------|
G||----------------------------2-4--|---------------------------------|
D||----------------2-----4---5------|--------------------------4-5-7--|
A||--2---2-2-5-2-2---2-2---2--------|--0---0-0-4-0-0-5-0-0-7-0--------|
D||---------------------------------|---------------------------------|




Guitar 1:
E||---------------------------------|---------------------------------|
B||---------------------------------|---------------------------------|
G||--------------------------4-6-7--|--------------------------4-6-7--|
D||--0---0-0-4-0-0-5-0-0-7-0--------|--0---0-0-4-0-0-5-0-0-7-0--------|
A||---------------------------------|---------------------------------|
D||---------------------------------|---------------------------------|


E||---------------------------------|--------------------------5-7-9~-\--|
B||---------------------------------|----------------7-----8-------------|
G||--------------------------4-6-7--|--6---6-6-9-6-6---6-6---6-----------|
D||--0---0-0-4-0-0-5-0-0-7-0--------|------------------------------------|
A||---------------------------------|------------------------------------|
D||---------------------------------|------------------------------------|


Guitar 2:
A||---------------------------------|---------------------------------|
D||---------------------------------|---------------------------------|
E||---------------------------------|---------------------------------|
B||---------------------------------|---------------------------------|
G||--------------------------2-4-5--|--------------------------2-4-5--|
D||--0------------------------------|--0------------------------------|


E||---------------------------------|------------------------------------|
B||---------------------------------|------------------------------------|
G||---------------------------------|------------------------------------|
D||---------------------------------|------------------------------------|
A||--2~-\----------------------0-2--|--0---0-0-4-0-0-5-0-0-7-0-----------|
D||--------------------------5------|--------------------------4-5-7~-\--|



Interlude
Guitar 1:
E||---------------------------------------------------------|
B||------7--7----------7--7----------8------10-------14~-\--|
G||--/6~-------6--6/7~-------7--7/9~---9/11----12/14~----\--|
D||---------------------------------------------------------|
A||---------------------------------------------------------|
D||---------------------------------------------------------|


Guitar 2:
E||----------------------------------------------|
B||----------------------------------------------|
G||----------------------------------------------|
D||--7~--7~--7~--7~--7~--7~--7~--7~--777777777\--|
A||--7~--7~--7~--7~--7~--7~--7~--7~--777777777\--|
D||--7~--7~--7~--7~--7~--7~--7~--7~--777777777\--|
     .   .   .   .   .   .   .   .   ....



Chorus
Guitar 1:
E||--------14----------14----------14----------14----------14----------14----------15-----|
B||--15----------15----------15----------15----------14----------14----------15-----------|
G||-----14----14----14----14----16----16----16----16----14----14----14----14----16----16--|
D||---------------------------------------------------------------------------------------|
A||---------------------------------------------------------------------------------------|
D||---------------------------------------------------------------------------------------|


Guitar 2:
E||-------------------------------------------------------------------------------|
B||-------------------------------------------------------------------------------|
G||-------------------------------------------------------------------------------|
D||--0----0----0--00--000---7----7----7--77--777---4----4----4--44--444---5----5--|
A||--0----0----0--00--000---7----7----7--77--777---4----4----4--44--444---5----5--|
D||--0----0----0--00--000---7----7----7--77--777---4----4----4--44--444---5----5--|



Guitar 1:
E||-----------------------|
B||-----------------------|
G||-------16--------------|
D||-----------------------|
A||--1414------1414-16-\--|
D||-----------------------|
     . .       . .

Guitar 2 (Dub):
E||-----------------------|
B||-----------------------|
G||-------12--------------|
D||-----------------------|
A||--1010------1010-12-\--|
D||-----------------------|
     . .       . .

Guitar 3:
E||----------------|
B||----------------|
G||----------------|
D||--5--5-----7-\--|
A||--5--5-----7-\--|
D||--5555---777-\--|
      ..    ..


Guitar 1:
E||--------14----------14----------14----------14----------14----------14----------15-----|
B||--------------15----------15----------15----------14----------14----------15-----------|
G||-----14----14----14----14----16----16----16----16----14----14----14----14----16----16--|
D||---------------------------------------------------------------------------------------|
A||---------------------------------------------------------------------------------------|
D||---------------------------------------------------------------------------------------|


Guitar 2:
E||-------------------------------------------------------------------------------|
B||-------------------------------------------------------------------------------|
G||-------------------------------------------------------------------------------|
D||-------0----0--00--000---7----7----7--77--777---4----4----4--44--444---5----5--|
A||-------0----0--00--000---7----7----7--77--777---4----4----4--44--444---5----5--|
D||-------0----0--00--000---7----7----7--77--777---4----4----4--44--444---5----5--|



Guitar 1:
E||-----------------------|
B||-----------------------|
G||-------16--------------|
D||-----------------------|
A||--1414------1414-16-\--|
D||-----------------------|
     . .       . .

Guitar 2 (Dub):
E||-----------------------|
B||-----------------------|
G||-------12--------------|
D||-----------------------|
A||--1010------1010-12-\--|
D||-----------------------|
     . .       . .

Guitar 3:
E||----------------|
B||----------------|
G||----------------|
D||--5--5-----7-\--|
A||--5--5-----7-\--|
D||--5555---777-\--|
      ..    ..



Outro
Guitar 1:
E||------------------------------------|------------------------------------|
B||--14b15r14b15r14------14b15r14------|--14b15r14b15r14------14b15r14------|
G||------------------11------------11--|------------------11------------11--|
D||------------------------------------|------------------------------------|
A||------------------------------------|------------------------------------|
D||------------------------------------|------------------------------------|


E||------------------------------------|--12----------12----------------------|
B||--14b15r14b15r14------14b15r14------|------15----------15------------------|
G||------------------11------------11--|----------14----------14--1212-14~-\--|
D||------------------------------------|--------------------------------------|
A||------------------------------------|--------------------------------------|
D||------------------------------------|--------------------------------------|


Guitar 2:
E||------------------------------------------------------------------------------------|
B||------------------------------------------------------------------------------------|
G||------------------------------------------------------------------------------------|
D||--00--000--000--000--099--999--999--999--944--444--444--444--455555555---5----7~-\--|
A||--00--000--000--000--099--999--999--999--944--444--444--444--455555555---5----7~-\--|
D||--00--000--000--000--099--999--999--999--944--444--444--444--455555555-555--777~-\--|
                                                                          ..   ..




Tablature Legend
----------------
 h   hammer-on
 p   pull-off
 b   bend
 pb  pre-bend
 r   release bend
 ~   hold / vibrato
 .   palm mute
 /   slide up
 \   slide down
 *   pinch harmonic
 '   natural harmonic
 x   mute note
 T   tap
comments
We did not receive enough feedback on this tab! Please rate:
print report bad tab
1 2 3 4 5
1 comment total.
0 reply
Simon Yazbeck wrote on October 15 2013, 02:43 pm

I've been waiting for a good tab of this song and this one looks great 5 stars for sure, thanks man!

I want to post or [tab]
guest
You may want to rate the tab now too:
select rating
Please do not post tabs as comments. Select "correction" instead!