Oops, an error
Loading. Please wait.

Before Tomorrow Comes Ukulele Chords

ver1
ver1

Whole song

Interactive

More versions @911Tabs.com
48 views 1 this week
no commentswrite comment
1 2 3 4 5
please rate
Autoscroll
+/-
esc
set tempo
stop
Difficulty
intermediate
NEW! There's an official Ultimate Guitar app which is ideal
for learning songs when you're away from computer. Get the app
WARNING: You are trying to view
                                    content from Ultimate-Guitar.com
                                    in an unauthorized application,
                                    which is prohibited.

                                    Please use an official Ultimate
                                    Guitar Tabs application for iPhone,
                                    iPad or Android to access legitimate
                                    chords, guitar, bass, and drum tabs
                                    from Ultimate-Guitar.com database.

                                    Type "ultimate guitar tabs" in Apple
                                    App Store's or Android Market's
                                    search to find the application.
Alter Bridge - Before Tomorrow Comes
mark-tremonti.com and alterbridgeband.net
[abbforums.net/forums]
Tabbed by:reuben   
Email:rubes_intheleast88@hotmail.com


Tuning:A#G#C#F#A#D# low E dropped to a B (same as broken wings) and then all strings down half a step

Enjoy!

Intro
gtr1 (clean)
eb|-0-------0-----0-----0-0-0-0---0-------0-------0---0-0-0-0-0-0-0-|
bb|-0-------0---0-0-----0-0-0-0-0-0-----0-0-----0-0---0-0-0-0-0-0-0-|
gb|-14------14161413--------13141311---11\8-----------8/13131311--11|
db|-----------------------------------------------------------------|
Ab|-----------------------------------------------------------------|
Bb|-----------------------------------------------------------------|
gtr2         dist                       fade in<<<<<<<<<<<<<<
eb|-----------------------------------------------------------------|
bb|-----------------------------------------------------------------|
gb|-----------------------------------------------------------------|
db|-----------------------------------------------------------------|
Ab|-------------------------------------2---------------------------|
Bb|-------------------------------------0---------------------------|


gtr1                                      (dist)
eb|-0-------0-----0-------0-0-0-0-0---------------------------------|
bb|-0-------0---0-0-------0-0-0-0-0---------------------------------|
gb|-14------14161413--------13141311----------------4/6/8-9---8---6-|
db|-------------------------------------------------x-----x---x---x-|
Ab|-----------------------------------------x\\\\\\-2/4/6-7---6---4-|
Bb|-----------------------------------------x\\\\\\-----------------|
Gtr2<<<<<<fade in<<<<<<<<<<<<<<<<<<<<<<
              PH          PHPHPHPHPHPHPHPHPH
eb|-----------------------------------------------------------------|
bb|-----------------------------------------------------------------|
gb|-------------------------------------------------4/6/8-9---8---6-|
db|-------------------------------------------------x-----x---x---x-|
Ab|-----------2~~~~~~~~~~~2~2~2~2~2~2~2~2~2~X\\\\\\-2/4/6-7---6---4-|
Bb|-----------------------------------------x\\\\\\-----------------|



Gtr1
eb|-------------------0-0-----0-0-0---------------------------------|
bb|-------------------0-0-----0-0-0-0-----0-0-----------------------|
gb|-2-----2-2-----2-2-4-4-----4-4-4-4-----4-4-----4-4/6-8-9---8---6-|
db|-2-----2-2-----2-2-6-6-----6-6-6-2-----2-2-----x-x---x-x---x---x-|
Ab|-0-----0-0-----0-0-7-7-----7-7-7-2-----2-2-----2-2/4-6-7---6---4-|
Bb|-------------------5-5-----5-5-5-0-----0-0-----0------------------
gtr2 (octave effect)
eb|-----------------------------------------------------------------|
bb|--------10h1210------------9h10-9--------------------------------|
gb|13b14~~~-------11b13~~~~~~~~~----9b11~~ub9\8-8~~~~~13131313111113|
db|-----------------------------------------------------------------|
Ab|-----------------------------------------------------------------|
Bb|-----------------------------------------------------------------|


Gtr1
eb|-------------------0-0-----0-0-0---------------------------------|
bb|-------------------0-0-----0-0-0-0-------------------------------|
gb|-2-----2-2-----2-2-4-4-----4-4-4-4-------------------------------|
db|-2-----2-2-----2-2-6-6-----6-6-6-4-------------------------------|
Ab|-0-----0-0-----0-0-7-7-----7-7-7-2-------------------------------|
Bb|-------------------5-5-----5-5-5-0-------------------------------|
gtr2                                      
eb|-----------------------------------------------------------------|
bb|--------10h1210--------------------------------------------------|
gb|13b14~~~-------11b13~~~~11b13uuuuuu11~~~~~~~~~~~~~~~~~~~~~~~~~~~-|
db|-----------------------------------------------------------------|
Ab|-----------------------------------------------------------------|
Bb|-----------------------------------------------------------------|


______
verse1|
______|

      "I couldn't sleep  I had to listen
Gtr1  clean
eb|-0-------0-----0-0-0-0---0-0-0-0-0-------0-----0---------0-------|
bb|-0-------0-----0-0-0-12--12120-0-7-------7-------7---------7-----|
gb|-14------14----1414x-13--131313138-------8---------8-------------|
db|-14------14----1414x-14--141414149-------9-----------9-----------|
Ab|-12------12----1212x-------------9-------9-------------------9/--|
Bb|-----------------------------------------------------------------|

            to a conscience knowing so well
Gtr1
eb|-0-------0-----0-0-0-0---0-0-0-0-0-------0-----0-------0---------|
bb|-0-------0-----0-0-1212--12120-0-7-------7---------------0-------|
gb|-14------14----14x-1313--131313138-------8-----------8-----8-----|
db|-14------14----14x---14--141414149-------9---------9-------------|
Ab|-12------12----12x---11--11111111----------------7-----------9/--|
Bb|-----------------------------------------------------------------|

         that nothing comes from indifference                 I look in-
Gtr1
eb|-0-------0-----0-0-0-0---0-0-0-0-0-------0-----0-----------------|
bb|-0-------0-----0-0-1212--12120-0-7-------7-----7-----------4-4-4-|
gb|-14------14----14x-1313--131313138-------8---8-8-----------4-4-4-|
db|-14------14----14x---14--141414149-------9---9-------------4-4-4-|
Ab|-12------12----12x---11--11111111--------------------------------|
Bb|-----------------------------------------------------------------|

    -siiiide                   of myself"
gtr1
eb|-0-----0-0-----------0---0-0---0-0---0-0-0-----0-------------0-0-|
bb|-5-----5-5-----5-x---x---x-x-x-x-7---7-7-7---7-7-------------0-0-|
gb|-6-----6-7-----7-7/9-9---9-9-x-x-8---8-8-8---8-8-------------1414|
db|-7-----7-7-----7-x---6---6-6-x-9-9---9-9-9---9-9-----------------|
Ab|-0-----0-0-------5/7-7---7-7-x-6-6---6-6-6---6-6-----------------|
Bb|-----------------------------------------------------------------|



______
Verse2|
______|
          "Will I find  some kind of con vic tion
Gtr1
eb|-0-------0-----0-0-0-0---0-0-0-0-0-------0-----0---------0-------|
bb|-0-------0-----0-0-0-12--12120-0-7-------7-------7---------7-----|
gb|-14------14----1414x-13--131313138-------8---------8-------------|
db|-14------14----1414x-14--141414149-------9-----------9-----------|
Ab|-12------12----1212x-------------9-------9-------------------9/--|
Bb|-----------------------------------------------------------------|
Gtr2
eb|---14--14--14--14--14--14--14--14--14--14--14--14--14--16--14--14|
bb|-12--12--12--12--12--12--12--12--12--12--12--12--12--12--12--12--|
gb|-----------------------------------------------------------------|
db|-----------------------------------------------------------------|
Ab|-----------------------------------------------------------------|
Bb|-----------------------------------------------------------------|

         or will I bid the hero farewell
Gtr1
eb|-0-------0-----0-0-0-0---0-0-0-0-0-------0-----0-------0---------|
bb|-0-------0-----0-0-0-12--12120-0-7-------7---------------0-------|
gb|-14------14----1414x-13--131313138-------8-----------8-----8-----|
db|-14------14----1414x-14--141414149-------9---------9-------------|
Ab|-12------12----1212--11--11111111----------------7-----------9/--|
Bb|-----------------------------------------------------------------|
Gtr2
eb|---14--14--14--14--14--14--14--14--14--14--14--14--14--16--14--14|
bb|-12--12--12--12--12--12--12--12--12--12--12--12--12--12--12--12--|
gb|-----------------------------------------------------------------|
db|-----------------------------------------------------------------|
Ab|-----------------------------------------------------------------|
Bb|-----------------------------------------------------------------|

         or will I be defined by things that could have been"   "I guess
Gtr1                                                dist
eb|-0-------0-----0-0-0-0---0-0-0-0-0-------0-----0-----------------|
bb|-0-------0-----0-0-0-12--12120-0-7-------7-----7-----------------|
gb|-14------14----1414x-13--131313138-------8---8-8-------------4-4-|
db|-14------14----1414x-14--141414149-------9---9---------------4-4-|
Ab|-12------12----1212--------------9-------9-------------------2-2-|
Bb|------------------------------------------------------//19\\\0-0-|
Gtr2                                                      dist
eb|---14--14--14--14--14--14--14--14--14--14--14--14--14------------|
bb|-12--12--12--12--12--12--12--12--12--12--12--12--12--12----------|
gb|-------------------------------------------------------------4-4-|
db|-------------------------------------------------------------4-4-|
Ab|-------------------------------------------------------------2-2-|
Bb|-------------------------------------------------------------0-0-|


_________
Prechorus|
_________| 
    tiiiiiiiiiiiiiiiime    Will only tell"                      "I guess
Gtr1
eb|---------------0-------------------------------------------------|
bb|-2-----2-2---2-x-0-----0-0-0-------------------------------------|
gb|-2-----2-2---2-x-4-----4-4-4-----4-----4-4-----4-4/8-8---8-8-8\x-|
db|-2-----2-2---2-x-6-----6-6-6-x-x-x-----4-4-----x-x---x---x-x-x-x-|
Ab|-0-----0-0---0-x-7-----7-7-7-x-x-2-----2-2-----2-2/6-6---6-6-6\x-|
Bb|-----------------5-----5-5-5-0-0-0-----0-0-----------------------|
Gtr2
eb|---------------0-------------------------------------------------|
bb|-2-----2-2---2-x-0-----0-0-0-------------------------------------|
gb|-2-----2-2---2-x-4-----4-4-4-----4-----4-4-----4-4-4-4-----4-4-4-|
db|-2-----2-2---2-x-6-----6-6-6-x-x-4-----4-4-----4-4-4-4-----4-4-4-|
Ab|-0-----0-0---0-x-7-----7-7-7-x-x-2-----2-2-----2-2-2-2-----2-2-2-|
Bb|-----------------5-----5-5-5-0-0-0-----0-0-----0-0-0-0-----0-0-0-|

    tiiiiiiiiiiiiiiiime    Will only tell"       "so  don't  let  it  be 
Gtr1
eb|---------------0-------------------------------------------------|
bb|-2-------2---2-x-0-----0-0-0-------------------------------------|
gb|-2-------2---2-x-4-----4-4-4-----4-4-4-4-4---4-4-4/9-9-9-9-8-8-x-|
db|-2-------2---2-x-6-----6-6-6-x-x-4-4-4-4-4---x-x-x---x-x-x-x-x-x-|
Ab|-0-------0---0-x-7-----7-7-7-x-x-2-2-2-2-2---2-2-2/7-7-7-7-6-6-0-|
Bb|-----------------5-----5-5-5-0-0-0-------------------------------|
Gtr2
eb|---------------0-------------------------------------------------|
bb|-2-------2---2-x-0-----0-0-0-------------------------------------|
gb|-2-------2---2-x-4-----4-4-4-----4---4-4-4-----4-4-4-4---4-4-4-4-|
db|-2-------2---2-x-6-----6-6-6-x-x-4---4-4-4-----4-4-4-4---4-4-4-4-|
Ab|-0-------0---0-x-7-----7-7-7-x-x-2---2-2-2-----2-2-2-2---2-2-2-2-|
Bb|-----------------5-----5-5-5-0-0-0---0-0-0-----0-0-0-0---0-0-0-0-|



______
Chorus|
______|
               Before tomorrow comes...       Before you turn away"
Gtr1&2
eb|-0-------0-----0-0---0---0-0-------------------------------------|
bb|-5-------5-----5-5---5---5-5-----0-------0-----0-0---0---0-0-----|
gb|-6-------6-----6-6h7-7---7-7-x-0-4-------4-----4-4---4---4-4-x-x-|
db|-7-------7-----7-7---7---7-7-x-0-6-------6-----6-6h7-7---7-7-x-x-|
Ab|-0-------0-----0-0---0---0-0-0-0-7-------7-----7-7---7---7-7-0-0-|
Bb|-----------------------------0-0-5-------5-----5-5---5---5-5-0-0-|

                                               "Take the hand in need
  "whyyyyyyyyyyyyyyyyyyyyyy"          "whyyyyyyyy"  
(btw i really think Mark's vocals sound awesome with Myles on this CD)
Gtr1&2)
eb|-----------------------------------------------------------------|   
bb|-----------------------------------------------------------------|
gb|-4-----4-4-----4-4-4-4/9-9-9-9-9-9\8---8-8-8-8-8-8-8-x-6-6-6-4-4-|
db|-x-----x-x-----x-x-x-x---x-x-x-x-x-----x-x-x-x-x-x-x-x-x-x-x-x-x-|
Ab|-2-----2-2-----2-2-2-2/7-7-7-7-7-7\6---6-6-6-6-6-6-6-x-4-4-4-2-2-|
Bb|-0-----0-0-----0-0-0-0-------------------------------------------|

               Before tomorrow comes       You could change everything"
Gtr1&2
eb|-----------------------------------------------------------------|
bb|---------------------------------0-------0-----0-0---0---0-0-----|
gb|-2-------2-----2-2h4-4---4-4-----4-------4-----4-4---4---4-4-x-x-|
db|-2-------2-----2-2---2---2-2-x-x-6-------6-----6-6h7-7---7-7-x-x-|
Ab|-0-------0-----0-0---0---0-0-x-x-7-------7-----7-7---7---7-7-0-0-|
Bb|-----------------------------x-x-5-------5-----5-5---5---5-5-0-0-|


Gtr1&2
eb|-----------------------------------------------------------------|
bb|-----------------------------------------------------------------|
gb|-4-------4-----4-4-4-4/9-9-9-9-9-9\8-----8-----------------------|
db|-x-------x-----x-x-x-x---x-x-x-x-x-------x-----------------------|
Ab|-2-------2-----2-2-2-2/7-7-7-7-7-7\6-----6-----------------------|
Bb|-0-------0-----0-0-0-0-------------------------------------------|




Gtr1 clean
eb|-0-------0-----0-0-0-0---0-0-0-0-0-------0-----0-----------------|
bb|-0-------0-----0-0-1212--12120-0-7-------7-----7-----------------|
gb|-14------14----14x-1313--131313138-------8---8-8-------------1414|
db|-14------14----14x---14--141414149-------9---9---------------1414|
Ab|-12------12----12x---11--11111111----------------------------1212|
Bb|-----------------------------------------------------------------|


______
Verse3|
______|
        "I curse my worth and every   comfort
Gtr1  clean
eb|-0-------0-----0-0-0-0---0-0-0-0-0-------0-----0---------0-------|
bb|-0-------0-----0-0-0-12--12120-0-7-------7-------7---------7-----|
gb|-14------14----1414x-13--131313138-------8---------8-------------|
db|-14------14----1414x-14--141414149-------9-----------9-----------|
Ab|-12------12----1212x-------------9-------9-------------------9/--|
Bb|-----------------------------------------------------------------|
Gtr2
eb|---14--14--14--14--14--14--14--14--14--14--14--14--14--16--14--14|
bb|-12--12--12--12--12--12--12--12--12--12--12--12--12--12--12--12--|
gb|-----------------------------------------------------------------|
db|-----------------------------------------------------------------|
Ab|-----------------------------------------------------------------|
Bb|-----------------------------------------------------------------|

          that blinded me for way too* long"
Gtr1                                                                 * cd typo :P
eb|-0-------0-----0-0-0-0---0-0-0-0-0-------0-----0-------0---------|(what...didn't think
bb|-0-------0-----0-0-1212--12120-0-7-------7---------------0-------| i was a diehard?)
gb|-14------14----14x-1313--131313138-------8-----------8-----8-----|
db|-14------14----14x---14--141414149-------9---------9-------------|
Ab|-12------12----12x---11--11111111----------------7-----------9/--|
Bb|-----------------------------------------------------------------|
Gtr2
eb|---14--14--14--14--14--14--14--14--14--14--14--14--14--16--14--14|
bb|-12--12--12--12--12--12--12--12--12--12--12--12--12--12--12--12--|
gb|-----------------------------------------------------------------|
db|-----------------------------------------------------------------|
Ab|-----------------------------------------------------------------|
Bb|-----------------------------------------------------------------|

           "Damn it all I'll make a difference from now on      cause I'm
Gtr1                                                  dist
eb|-0-------0-----0-0-0-0---0-0-0-0-0-------0---0-0-0---------------|
bb|-0-------0-----0-0-1212--12120-0-7-------7---7-7-7---------------|
gb|-14------14----14x-1313--131313138-------8---8-8-8---------------|
db|-14------14----14x---14--141414149-------9---9-9-9---------------|
Ab|-12------12----12x---11--11111111---------------------x\\\\\\\\\\|
Bb|------------------------------------------------------x\\\\\\\\\\|
Gtr2
eb|---14--14--14--14--14--14--14--14--14--14--14--14--14------------|
bb|-12--12--12--12--12--12--12--12--12--12--12--12--12--12----------|
gb|-----------------------------------------------------------------|
db|-----------------------------------------------------------------|
Ab|-----------------------------------------------------------------|
Bb|-----------------------------------------------------------------|


__________
Prechorus2|
__________|
    wiiiiiiiiide awake    to it all"                        "cause I'm
Gtr1
eb|-----------------------------------------------------------------|
bb|-----------------0-------0-0-------------------------------------|
gb|-2-------2h4---4-4-------4-4-----4-----4-4-----4-4/8-8---8-8-4-4-|
db|-2-------2-----2-6-------6-6-x-x-x-----4-4-----x-x---x---x-x-x-x-|
Ab|-0-------0-----0-7-------7-7-x-x-2-----2-2-----2-2/6-6---6-6-2-2-|
Bb|-----------------5-------5-5-0-0-0-----0-0-----------------------|
Gtr2
eb|-----------------------------------------------------------------|
bb|-----------------0-------0-0-------------------------------------|
gb|-2-------2h4---4-4-------4-4-----4-----4-4-----4-4-4-4-----4-4-4-|
db|-2-------2-----2-6-------6-6-x-x-4-----4-4-----4-4-4-4-----4-4-4-|
Ab|-0-------0-----0-7-------7-7-x-x-2-----2-2-----2-2-2-2-----2-2-2-|
Bb|-----------------5-------5-5-0-0-0-----0-0-----0-0-0-0-----0-0-0-|

    wiiiiiiiiide awake    to it all               so  don't let it be..."
Gtr1
eb|-----------------------------------------------------------------|
bb|-----------------0-----0-0-0-------------------------------------|
gb|-2-------2h4-4-4-4-----4-4-4-----4---4-4-4---4-4-4/9-9-9-9-8-8-x-|
db|-2-------2---2-2-6-----6-6-6-x-x-4---4-4-4---x-x-x---x-x-x-x-x-x-|
Ab|-0-------0---0-0-7-----7-7-7-x-x-2---2-2-2---2-2-2/7-7-7-7-6-6-0-|
Bb|-----------------5-----5-5-5-0-0-0-------------------------------|
Gtr2
eb|-----------------------------------------------------------------|
bb|-----------------0-----0-0-0-------------------------------------|
gb|-2-------2h4-4-4-4-----4-4-4-----4---4-4-4---4-4-4-4-4-4-4-4-4-4-|
db|-2-------2---2-2-6-----6-6-6-x-x-4---4-4-4---4-4-4-4-4-4-4-4-4-4-|
Ab|-0-------0---0-0-7-----7-7-7-x-x-2---2-2-2---2-2-2-2-2-2-2-2-2-2-|
Bb|-----------------5-----5-5-5-0-0-0---0-0-0---0-0-0-0-0-0-0-0-0-0-|



_______
Chorus2|
_______|

Gtr1&2 
eb|-0-------0-----0-0---0---0-0-------------------------------------|
bb|-5-------5-----5-5---5---5-5-----0-------0-----0-0---0---0-0-----|
gb|-6-------6-----6-6h7-7---7-7-x-0-4-------4-----4-4---4---4-4-x-x-|
db|-7-------7-----7-7---7---7-7-x-0-6-------6-----6-6h7-7---7-7-x-x-|
Ab|-0-------0-----0-0---0---0-0-0-0-7-------7-----7-7---7---7-7-0-0-|
Bb|-----------------------------0-0-5-------5-----5-5---5---5-5-0-0-|


Gtr1&2
eb|-----------------------------------------------------------------|
bb|-----------------------------------------------------------------|
gb|-4-----4-4-----4-4-4-4/9-9-9-9-9-9\8---8-8-8-8-8-8-8-x-6-6-6-4-4-|
db|-x-----x-x-----x-x-x-x---x-x-x-x-x-----x-x-x-x-x-x-x-x-x-x-x-x-x-|
Ab|-2-----2-2-----2-2-2-2/7-7-7-7-7-7\6---6-6-6-6-6-6-6-x-4-4-4-2-2-|
Bb|-0-----0-0-----0-0-0-0-------------------------------------------|

                                              "...every--
Gtr1&2
eb|-----------------------------------------------------------------|
bb|---------------------------------0-------0-----0-0---0-0-0-0-0-0-|
gb|-2-------2-----2-2h4-4---4-4-----4-------4-----4-4---4-4-4-4-4-4-|
db|-2-------2-----2-2---2---2-2-x-x-6-------6-----6-6h7-7-7-6-6-6-6-|
Ab|-0-------0-----0-0---0---0-0-x-x-7-------7-----7-7---7-7-7-7-7-7-|
Bb|-----------------------------x-x-5-------5-----5-5---5-5-5-5-5-5-|

    thiiiiiiiiiiiiiiiiiiiiiiiiing"
gtr1
eb|-----------------------------------------------------------------|
bb|-3---3---3-3-3-3-2---2-2-2-2-2-2---------------------------------|
gb|-2---2---2-2-2-2-2---4-4-2-2-2-2-4-------4-----4/1111111111111111|
db|-0---0---0-0-0-0-2---2-2-2-2-2-2-4-------4-----x---x-x-x-x-x-x-x-|
Ab|-0---0---0-0-0-0-4---4-4-4-4-4-4-2-------2-----2/9-9-9-9-9-9-9-9-|
Bb|---------------------------------0-------0-----0-----------------|

                "Does anyone care it ain't     
gtr1
eb|---------------------------------|
bb|---------------------------------|
gb|-111616161616161616-\------------|
db|-x---x-x-x-x-x-x-x---------------|
Ab|-9/1414141414141414-\------------|
Bb|---------------------------------|


______
Bridge|
______| 
    right    what we're doin"
                                                  "Does anyone here care at
Gtr1
eb|-----------------------------------------------------------------|
bb|-2-----2-2-2-2-2-------------------------------------------------|
gb|-2-----2-2-2-2-2---x-4---4-4-----4---4-4-4---4-4-4/6-8-9---8---6-|  __
db|-2-----2-2-2-2-2-x-x-6---7-6-x-x-4---x-x-x---x-x-x---x-x---x---x-|<|3x|
Ab|-0-----0-0-0-0-0-x-7-7---7-7-x-2-2---2-2-2---2-2-2/4-6-7---6---4-| |__|
Bb|-----------------0-5-5---5-5-0-0-0---0-0-0---0-0-0---------------|


     allllllllll"
Gtr1
eb|-----------------------------------------------------------------|
bb|-2-----2-2-2-2-2-------------------------------------------------|
gb|-2-----2-2-2-2-2---x-4---4-4-----4---4-4-4---4-4-4/9-9-9-9\8-4-4-|
db|-2-----2-2-2-2-2-x-x-6---7-6-x-x-4---x-x-x---x-x-x---x-x-x---x-x-| 
Ab|-0-----0-0-0-0-0-x-7-7---7-7-x-2-2---2-2-2---2-2-2/7-7-7-7\6-2-2-|
Bb|-----------------0-5-5---5-5-0-0-0---0-0-0---0-0-0---------------|


___________
Last Chorus|
___________|

Gtr1
eb|-0-------0-----0-0---0---0-0-------------------------------------|
bb|-5-------5-----5-5---5---5-5-----0-------0-----0-0---0---0-0-----|
gb|-6-------6-----6-6h7-7---7-7-x-0-4-------4-----4-4---4---4-4-x-x-|
db|-7-------7-----7-7---7---7-7-x-0-6-------6-----6-6h7-7---7-7-x-x-|
Ab|-0-------0-----0-0---0---0-0-0-0-7-------7-----7-7---7---7-7-0-0-|
Bb|-----------------------------0-0-5-------5-----5-5---5---5-5-0-0-|
Gtr2
eb|---14--16--14--14--14--16--14--14--14--16--14--14--14--16--14--14|
bb|-12--12--12--12--12--12--12--12--12--12--12--12--12--12--12--12--|
gb|-----------------------------------------------------------------|
db|-----------------------------------------------------------------|
Ab|-----------------------------------------------------------------|
Bb|-----------------------------------------------------------------|


Gtr1
eb|-----------------------------------------------------------------|
bb|-----------------------------------------------------------------|
gb|-4-----4-4-----4-4-4-4/9-9-9-9-9-9\8---8-8-8-8-8-8-8---8-8-8-8-\-|
db|-x-----x-x-----x-x-x-x---x-x-x-x-x-----x-x-x-x-x-x-x---x-x-x-x-x-|
Ab|-2-----2-2-----2-2-2-2/7-7-7-7-7-7\6---6-6-6-6-6-6-6---6-6-6-6-\-|
Bb|-0-----0-0-----0-0-0-0-------------------------------------------|
Gtr2
eb|---14--16--14--14--14--16--14--14--14--16--14--14--14--16--14--14|
bb|-12--12--12--12--12--12--12--12--12--12--12--12--12--12--12--12--|
gb|-----------------------------------------------------------------|
db|-----------------------------------------------------------------|
Ab|-----------------------------------------------------------------|
Bb|-----------------------------------------------------------------|


Gtr1
eb|-0-------0-----0-0---0---0-0-------------------------------------|
bb|-5-------5-----5-5---5---5-5-----0-------0-----0-0---0---0-0-----|
gb|-6-------6-----6-6h7-7---7-7-x-0-4-------4-----4-4---4---4-4-x-x-|
db|-7-------7-----7-7---7---7-7-x-0-6-------6-----6-6h7-7---7-7-x-x-|
Ab|-0-------0-----0-0---0---0-0-0-0-7-------7-----7-7---7---7-7-0-0-|
Bb|-----------------------------0-0-5-------5-----5-5---5---5-5-0-0-|
Gtr2
eb|---14--16--14--14--14--16--14--14--14--16--14--14--14--16--14--14|
bb|-12--12--12--12--12--12--12--12--12--12--12--12--12--12--12--12--|
gb|-----------------------------------------------------------------|
db|-----------------------------------------------------------------|
Ab|-----------------------------------------------------------------|
Bb|-----------------------------------------------------------------|

                                                         "we could be
Gtr1
eb|-----------------------------------------------------------------|
bb|-----------------------------------------------------------------|
gb|-4-----4-4-----4-4-4-4/9-9-9-9-9-9\8---8-8-8-8-8-8-8-----8-8-4-4-|
db|-x-----x-x-----x-x-x-x---x-x-x-x-x-----x-x-x-x-x-x-x-----x-x-x-x-|
Ab|-2-----2-2-----2-2-2-2/7-7-7-7-7-7\6---6-6-6-6-6-6-6-----6-6-2-2-|
Bb|-0-----0-0-----0-0-0-0-------------------------------------------|
Gtr2
eb|---14--16--14--14--14--16--14--14--14--16--14--14--14--16--14--14|
bb|-12--12--12--12--12--12--12--12--12--12--12--12--12--12--12--12--|
gb|-----------------------------------------------------------------|
db|-----------------------------------------------------------------|
Ab|-----------------------------------------------------------------|
Bb|-----------------------------------------------------------------|


          so much more than we are..."
Gtr1
eb|-----------------------------------------------------------------|
bb|-----------------------------------------------------------------|
gb|-4---4-4-4---4-4-x-4-4---4-4-----4---4-4-4---4-4-4/6-8-9---8---6-|
db|-2---2-2-2---2-2-x-6-6---6-6---x-4---x-x-x---x-x-x---x-x---x---x-|
Ab|-0---0-0-0---0-0-x-7-7---7-7-x-x-2---2-2-2---2-2-2/4-6-7---6---4-|
Bb|-------------------5-5---5-5-x-0-0---0-0-0---0-0-0---------------|

A 3rd guitar plays this part, but ill write it out for gtr2, since there are only 2
gtr2
eb|-----------------------------------------------------------------|
bb|-----------------------------------------------------------------|
gb|-----------------------------------------------------------------|
db|---------------------------------14~~~~1314~~~~131413------------|
Ab|-----------------------------------------------------14~~~~~~~~14|
Bb|---------------------x\\-/20\\-----------------------------------|

           so much more than we are
Gtr1
eb|-----------------------------------------------------------------|
bb|-----------------------------------------------------------------|
gb|-4---4-4-4---4-4-x-4-4---4-4-----4---4-4-4---4-4-4/6-8-9---8---6-|
db|-2---2-2-2---2-2-x-6-6---6-6---x-4---x-x-x---x-x-x---x-x---x---x-|
Ab|-0---0-0-0---0-0-x-7-7---7-7-x-x-2---2-2-2---2-2-2/4-6-7---6---4-|
Bb|-------------------5-5---5-5-x-0-0---0-0-0---0-0-0---------------|
gtr2
eb|-----------------------------------------------------------------|
bb|-----------------------------------------------------------------|
gb|-----------------------------------------------------------------|
db|-----------------------------------------------------14b16~~~~~~~|
Ab|12~~~~~~~~~~~~~~\--/10~~~~~~~\-x-14~~~~1314~~~~131413------------|
Bb|-----------------------------------------------------------------|

                                                                
Gtr1
eb|-----------------------------------------------------------------|
bb|-----------------------------------------------------------------|
gb|-4---4-4-4---4-4-x-4-4---4-4-----4---4-4-4---4-4-4/6-8-9---8---6-|
db|-2---2-2-2---2-2-x-6-6---6-6---x-4---x-x-x---x-x-x---x-x---x---x-|
Ab|-0---0-0-0---0-0-x-7-7---7-7-x-x-2---2-2-2---2-2-2/4-6-7---6---4-|
Bb|-------------------5-5---5-5-x-0-0---0-0-0---0-0-0---------------|
gtr2
eb|---------------------------------7-------------------------------7-|
bb|-10--------------9----------------710----7------------------------7|
gb|12b14~~~~~~~~~~~~11b13~~~~~~~~~~-----9b11-7-9-7b8------------------|
db|-------------------------------------------9-----9\7-4\2p0-2~~~~1--|
Ab|-------------------------------------------------------------------|
Bb|-------------------------------------------------------------------|
                (this part honestly makes me feel like I'm playing part of
                  the solo from Comfortably Numb...)

      rit.
Gtr1                                                     fade out
eb|-----------------------------------------------------------------|
bb|-----------------------------------------------------------------|
gb|-4---4-4-4---4-4-x-4-4---4-4-----------4-------------------------|
db|-2---2-2-2---2-2-x-6-6---6-6-----------x-------------------------|
Ab|-0---0-0-0---0-0-x-7-7---7-7-x\\\\\\---2-------------------------|
Bb|-------------------5-5---5-5-x\\\\\\\--0-------------------------|
gtr2                                                           T
eb|------7--7-9-7h9p7--7---10b12-9b11-7-----------------------------|
bb|-----7-10---------10-107------------7-10b12-10b12~~~~~~~~~~~*~~~~|
gb|-9b11------------------------------------------------------------|
db|-----------------------------------------------------------------|
Ab|-----------------------------------------------------------------|
Bb|-----------------------------------------------------------------|



| /  slide up
| \  slide down
| h  hammer-on
| p  pull-off
| ~  vibrato
| * harmonic(T tap)
| x  Mute note
| PM Palm mute
| PH pinch harmonic
| b  bend
| u  unbend

===============================================================================
comments
We did not receive enough feedback on this tab! Please rate:
print report bad tab
1 2 3 4 5
I want to post or [tab]
guest
You may want to rate the tab now too:
select rating
Please do not post tabs as comments. Select "correction" instead!