Oops, an error
Loading. Please wait.

Burn It Down Tab

ver3
ver3

Intro

Solo

Whole song

More versions @911Tabs.com
9,982 views 40 this week
2 commentsread comments
1 2 3 4 5
excellent!
x 3
Autoscroll
+/-
esc
set tempo
stop
Contributor
WARNING: You are trying to view
                                    content from Ultimate-Guitar.com
                                    in an unauthorized application,
                                    which is prohibited.

                                    Please use an official Ultimate
                                    Guitar Tabs application for iPhone,
                                    iPad or Android to access legitimate
                                    chords, guitar, bass, and drum tabs
                                    from Ultimate-Guitar.com database.

                                    Type "ultimate guitar tabs" in Apple
                                    App Store's or Android Market's
                                    search to find the application.
Song     :Burn It Down
Artist   :Alter Bridge
Tabbed By:Chirantan
E-Mail   :chirantan.pal@gmail.com

                                        
E||-------0-------------0-----|-----------------------0-------|
B||--0----0---0---0-0-----0---|--0----0-------0---------(0)---|
G||--8----8---8-8-7-7-------6-|--6----6---6-6-5-----5---------|
D||--9----9---9-9-7-7---------|--7----7---7-7-5---5-----------|
A||--9----9---9-9-5-5---------|--7----7---7-7-3-3-------------|
E||--7----7---7-7-------------|--5----5---5-5-----------------|
                                                         
                                     
|--0---------0-----------0-----|-------0---0--------------|
|--0-----------0-----------0---|-------0---0--0--------0--|
|--3----3--------3-----------3-|-------3---3--3-----3--3--|
|--4----4--4-------------------|--4----4---4--4-4-4-4--4--|
|--4----4--4-------------------|--4----4---4--4-4-4-4--4--|
|--2----2--2-------0-2-3-------|--2----2---2--2-0-2-3--2--|
                                                          
                                     
|-------0-------------0-----|-----------------------0-------|
|--0----0---0---0-0-----0---|--0----0-------0---------(0)---|
|--8----8---8-8-7-7-------6-|--6----6---6-6-5-----5---------|
|--9----9---9-9-7-7---------|--7----7---7-7-5---5-----------|
|--9----9---9-9-5-5---------|--7----7---7-7-3-3-------------|
|--7----7---7-7-------------|--5----5---5-5-----------------|
                                                         
                                     
|--0---------0-----------0-----|-------0---0--------------|
|--0-----------0-----------0---|-------0---0--0--------0--|
|--3----3--------3-----------3-|-------3---3--3-----3--3--|
|--4----4--4-------------------|--4----4---4--4-4-4-4--4--|
|--4----4--4-------------------|--4----4---4--4-4-4-4--4--|
|--2----2--2-------0-2-3-------|--2----2---2--2-0-2-3--2--|
                                                          
                                     
|---------------------0-----|-----------------------0-------|
|--0----0---0---0-0-----0---|--0----0-------0---------(0)---|
|--8----8---8-8-7-7-------6-|--6----6---6-6-5-----5---------|
|--9----9---9-9-7-7---------|--7----7---7-7-5---5-----------|
|--9----9---9-9-5-5---------|--7----7---7-7-3-3-------------|
|--7----7---7-7-------------|--5----5---5-5-----------------|
                                                         
                                     
|--0---------0-----------0-----|-------0---0--------------|
|--0-----------0-----------0---|-------0---0--0--------0--|
|--3----3--------3-----------3-|-------3---3--3-----3--3--|
|--4----4--4-------------------|--4----4---4--4-4-4-4--4--|
|--4----4--4-------------------|--4----4---4--4-4-4-4--4--|
|--2----2--2-------0-2-3-------|--2----2---2--2-0-2-3--2--|
                                                          
                                     
|-------0-------------0-----|-----------------------0-------|
|--0----0---0---0-0-----0---|--0----0-------0---------(0)---|
|--8----8---8-8-7-7-------6-|--6----6---6-6-5-----5---------|
|--9----9---9-9-7-7---------|--7----7---7-7-5---5-----------|
|--9----9---9-9-5-5---------|--7----7---7-7-3-3-------------|
|--7----7---7-7-------------|--5----5---5-5-----------------|
                                                         
                                     
|--0---------0-----------0-----|-------0---0--------------|
|--0-----------0-----------0---|-------0---0--0--------0--|
|--3----3--------3-----------3-|-------3---3--3-----3--3--|
|--4----4--4-------------------|--4----4---4--4-4-4-4--4--|
|--4----4--4-------------------|--4----4---4--4-4-4-4--4--|
|--2----2--2-------0-2-3-------|--2----2---2--2-0-2-3--2--|
                                                          
                                     
|-------0-------------0-----|-----------------------0-------|
|--0----0---0---0-0-----0---|--0----0-------0---------(0)---|
|--8----8---8-8-7-7-------6-|--6----6---6-6-5-----5---------|
|--9----9---9-9-7-7---------|--7----7---7-7-5---5-----------|
|--9----9---9-9-5-5---------|--7----7---7-7-3-3-------------|
|--7----7---7-7-------------|--5----5---5-5-----------------|
                                                         
                                     
|--0---------0-----------0-----|-------0---0--------------|
|--0-----------0-----------0---|-------0---0--0--------0--|
|--3----3--------3-----------3-|-------3---3--3-----3--3--|
|--4----4--4-------------------|--4----4---4--4-4-4-4--4--|
|--4----4--4-------------------|--4----4---4--4-4-4-4--4--|
|--2----2--2-------0-2-3-------|--2----2---2--2-0-2-3--2--|
                                                         
                                     
|-------0-------------0-----|-----------------------0-------|
|--0----0---0---0-0-----0---|--0----0-------0---------(0)---|
|--8----8---8-8-7-7-------6-|--6----6---6-6-5-----5---------|
|--9----9---9-9-7-7---------|--7----7---7-7-5---5-----------|
|--9----9---9-9-5-5---------|--7----7---7-7-3-3-------------|
|--7----7---7-7-------------|--5----5---5-5-----------------|
                                                        
                                     
|--0---------0-----------0-----|-------0---0--------------|
|--0-----------0-----------0---|-------0---0--0--------0--|
|--3----3--------3-----------3-|-------3---3--3-----3--3--|
|--4----4--4-------------------|--4----4---4--4-4-4-4--4--|
|--4----4--4-------------------|--4----4---4--4-4-4-4--4--|
|--2----2--2-------0-2-3-------|--2----2---2--2-0-2-3--2--|

                                   
|--0----0---------0-------|--0----0-------0-0---0-----|
|--0----0---0-0-0-0----0--|--0----0---0-0-0-0---0-0-0-|
|--8----8---8-8-8-8----8--|--4----4---4-4-7-7---7-7-7-|
|--9----9---9-9-9-9----9--|--5----5---5-5-7-7---7-7-7-|
|--9----9---9-9-9-9----9--|--5----5---5-5-5-5---5-5-5-|
|--7----7---7-7-7-7----7--|--3----3---3-3-------------|

                                       
|--0----0------0--0-0-----0-0--|--0----0---------0-------|
|--0----0--0---0--0-0-0-0-0-0--|--0----0---0-0-0-0----0--|
|--6----6--6-6g7--7-7-7-7-6-6--|--8----8---8-8-8-8----8--|
|--7----7--7---7--7-7-7-7-7-7--|--9----9---9-9-9-9----9--|
|--0----0--0---0--0-0-0-0-0-0--|--9----9---9-9-9-9----9--|
|------------------------------|--7----7---7-7-7-7----7--|

                                                                          
|--0----0-------0-0---0-----|--0------------------------------|
|--0----0---0-0-0-0---0-0-0-|--0------------------------------|
|--4----4---4-4-7-7---7-7-7-|--6------------5---5-7b-5~--(4)--|
|--5----5---5-5-7-7---7-7-7-|--7--------5-7---7---------------|
|--5----5---5-5-5-5---5-5-5-|--0------------------------------|
|--3----3---3-3-------------|---------------------------------|

                                                                                             
|-------0-------------0-----|-----------------------0-------|
|--0----0---0---0-0-----0---|--0----0-------0---------(0)---|
|--8----8---8-8-7-7-------6-|--6----6---6-6-5-----5---------|
|--9----9---9-9-7-7---------|--7----7---7-7-5---5-----------|
|--9----9---9-9-5-5---------|--7----7---7-7-3-3-------------|
|--7----7---7-7-------------|--5----5---5-5-----------------|
                                                         
                                     
|--0---------0-----------0-----|-------0---0--------------|
|--0-----------0-----------0---|-------0---0--0--------0--|
|--3----3--------3-----------3-|-------3---3--3-----3--3--|
|--4----4--4-------------------|--4----4---4--4-4-4-4--4--|
|--4----4--4-------------------|--4----4---4--4-4-4-4--4--|
|--2----2--2-------0-2-3-------|--2----2---2--2-0-2-3--2--|

                                     
|-------0-------------0-----|-----------------------0-------|
|--0----0---0---0-0-----0---|--0----0-------0---------(0)---|
|--8----8---8-8-7-7-------6-|--6----6---6-6-5-----5---------|
|--9----9---9-9-7-7---------|--7----7---7-7-5---5-----------|
|--9----9---9-9-5-5---------|--7----7---7-7-3-3-------------|
|--7----7---7-7-------------|--5----5---5-5-----------------|
                                                         
                                     
|--0---------0-----------0-----|-------0---0--------------|
|--0-----------0-----------0---|-------0---0--0--------0--|
|--3----3--------3-----------3-|-------3---3--3-----3--3--|
|--4----4--4-------------------|--4----4---4--4-4-4-4--4--|
|--4----4--4-------------------|--4----4---4--4-4-4-4--4--|
|--2----2--2-------0-2-3-------|--2----2---2--2-0-2-3--2--|

                                                                                              
|-------0-------------0-----|-----------------------0-------|
|--0----0---0---0-0-----0---|--0----0-------0---------(0)---|
|--8----8---8-8-7-7-------6-|--6----6---6-6-5-----5---------|
|--9----9---9-9-7-7---------|--7----7---7-7-5---5-----------|
|--9----9---9-9-5-5---------|--7----7---7-7-3-3-------------|
|--7----7---7-7-------------|--5----5---5-5-----------------|
                                                         
                                     
|--0---------0-----------0-----|-------0---0--------------|
|--0-----------0-----------0---|-------0---0--0--------0--|
|--3----3--------3-----------3-|-------3---3--3-----3--3--|
|--4----4--4-------------------|--4----4---4--4-4-4-4--4--|
|--4----4--4-------------------|--4----4---4--4-4-4-4--4--|
|--2----2--2-------0-2-3-------|--2----2---2--2-0-2-3--2--|

                                                                                        
|---------------------0-----|-----------------------0-----0-|
|--0----0---0---0-0-----0---|--0----0-------0---------0---0-|
|--8----8---8-8-7-7-------6-|--6----6---6-6-5-----5-------3-|
|--9----9---9-9-7-7---------|--7----7---7-7-5---5---------4-|
|--9----9---9-9-5-5---------|--7----7---7-7-3-3-----------4-|
|--7----7---7-7-------------|--5----5---5-5---------------2-|

                                     
|------------0-----------0-----|-------0---0--------------|
|--------------0-----------0---|-------0---0--0--------0--|
|-------3--------3-----------3-|-------3---3--3-----3--3--|
|-------4--4-------------------|--4----4---4--4-4-4-4--4--|
|-------4--4-------------------|--4----4---4--4-4-4-4--4--|
|-------2--2-------0-2-3-------|--2----2---2--2-0-2-3--2--|

                                                                                               
|-------0-------------0-----|-----------------------0-------|
|--0----0---0---0-0-----0---|--0----0-------0---------(0)---|
|--8----8---8-8-7-7-------6-|--6----6---6-6-5-----5---------|
|--9----9---9-9-7-7---------|--7----7---7-7-5---5-----------|
|--9----9---9-9-5-5---------|--7----7---7-7-3-3-------------|
|--7----7---7-7-------------|--5----5---5-5-----------------|
                                                         
                                     
|--0---------0-----------0-----|-------0---0--------------|
|--0-----------0-----------0---|-------0---0--0--------0--|
|--3----3--------3-----------3-|-------3---3--3-----3--3--|
|--4----4--4-------------------|--4----4---4--4-4-4-4--4--|
|--4----4--4-------------------|--4----4---4--4-4-4-4--4--|
|--2----2--2-------0-2-3-------|--2----2---2--2-0-2-3--2--|

                                   
|--0----0---------0-------|--0----0-------0-0---0-----|
|--0----0---0-0-0-0----0--|--0----0---0-0-0-0---0-0-0-|
|--8----8---8-8-8-8----8--|--4----4---4-4-7-7---7-7-7-|
|--9----9---9-9-9-9----9--|--5----5---5-5-7-7---7-7-7-|
|--9----9---9-9-9-9----9--|--5----5---5-5-5-5---5-5-5-|
|--7----7---7-7-7-7----7--|--3----3---3-3-------------|

                                       
|--0----0------0--0-0-----0-0--|--0----0---------0-------|
|--0----0--0---0--0-0-0-0-0-0--|--0----0---0-0-0-0----0--|
|--6----6--6-6g7--7-7-7-7-6-6--|--8----8---8-8-8-8----8--|
|--7----7--7---7--7-7-7-7-7-7--|--9----9---9-9-9-9----9--|
|--0----0--0---0--0-0-0-0-0-0--|--9----9---9-9-9-9----9--|
|------------------------------|--7----7---7-7-7-7----7--|

                                      
|--0----0-------0-0---0-----|--0----0------0--0-0-----0-0--|
|--0----0---0-0-0-0---0-0-0-|--0----0--0---0--0-0-0-0-0-0--|
|--4----4---4-4-7-7---7-7-7-|--6----6--6-6g7--7-7-7-7-6-6--|
|--5----5---5-5-7-7---7-7-7-|--7----7--7---7--7-7-7-7-7-7--|
|--5----5---5-5-5-5---5-5-5-|--0----0--0---0--0-0-0-0-0-0--|
|--3----3---3-3-------------|------------------------------|

                                   
|--0----0---------0-------|--0----0-------0-0---0-----|
|--0----0---0-0-0-0----0--|--0----0---0-0-0-0---0-0-0-|
|--8----8---8-8-8-8----8--|--4----4---4-4-7-7---7-7-7-|
|--9----9---9-9-9-9----9--|--5----5---5-5-7-7---7-7-7-|
|--9----9---9-9-9-9----9--|--5----5---5-5-5-5---5-5-5-|
|--7----7---7-7-7-7----7--|--3----3---3-3-------------|

                                       
|--0----0------0--0-0-----0-0--|--0----0---------0-------|
|--0----0--0---0--0-0-0-0-0-0--|--0----0---0-0-0-0----0--|
|--6----6--6-6g7--7-7-7-7-6-6--|--8----8---8-8-8-8----8--|
|--7----7--7---7--7-7-7-7-7-7--|--9----9---9-9-9-9----9--|
|--0----0--0---0--0-0-0-0-0-0--|--9----9---9-9-9-9----9--|
|------------------------------|--7----7---7-7-7-7----7--|

                                    
|--0----0-------0-0---0-----|--0----0----0--0-0---------|
|--0----0---0-0-0-0---0-0-0-|--0----0--0-0--0-0--0-0----|
|--4----4---4-4-7-7---7-7-7-|--6----6--6-6--6-6--6-6--6-|
|--5----5---5-5-7-7---7-7-7-|--7----7--7-7--7-7--7-7--7-|
|--5----5---5-5-5-5---5-5-5-|--0----0--0-0--0-0--0-0--0-|
|--3----3---3-3-------------|---------------------------|
                                                  
                                    
|--0--------0-------------|--0----------------------|
|--0----------0--------0--|--0-------------------0--|
|--2------------2------2--|--4-------------------4--|
|--3------3-------3----3--|--5--------------5----5--|
|--3--------------3----3--|--5--------------5----5--|
|--1--------------1----1--|--3--------------3----3--|

                                          
|--0----0------0--0-0-----0-0--|--0-------------------------|
|--0----0--0---0--0-0-0-0-0-0--|--0-------------------------|
|--6----6--6-6g7--7-7-7-7-6-6--|--6--------5b--5---5-7br--5-|
|--7----7--7---7--7-7-7-7-7-7--|--7--------------7----------|
|--0----0--0---0--0-0-0-0-0-0--|--0-------------------------|
|------------------------------|----------------------------|
                                                  
                                    
|--0--------0-------------|--0----------------------|
|--0----------0--------0--|--0-------------------0--|
|--2------------2------2--|--4-------------------4--|
|--3------3-------3----3--|--5--------------5----5--|
|--3--------------3----3--|--5--------------5----5--|
|--1--------------1----1--|--3--------------3----3--|

                                          
|--0----0------0--0-0-----0-0--|--0----0------0--0-0-----0-0--|
|--0----0--0---0--0-0-0-0-0-0--|--0----0--0---0--0-0-0-0-0-0--|
|--6----6--6-6g7--7-7-7-7-6-6--|--6----6--6-6g7--7-7-7-7-6-6--|
|--7----7--7---7--7-7-7-7-7-7--|--7----7--7---7--7-7-7-7-7-7--|
|--0----0--0---0--0-0-0-0-0-0--|--0----0--0---0--0-0-0-0-0-0--|
|------------------------------|------------------------------|

                                            
|--(0)----(0)-----------------|--(0)----(0)-----------------|
|--(0)----(0)-----------------|--(0)----(0)-----------------|
|--(2)----(2)-------5-5----5--|--(4)----(4)-------7-7----7--|
|---3------3----3-3-5-5----5--|---5------5----5-5-7-7----7--|
|---3------3----3-3-3-3----3--|---5------5----5-5-5-5----5--|
|---1------1----1-1-3-3----3--|---3------3----3-3-5-5----5--|

                                           
|--(0)----(0)-----------------|--(0)----(0)------------------|
|--(0)----(0)-----------------|--(0)----(0)------------------|
|--(2)----(2)-------5-5----5--|--(4)----(4)-------7-7--7-7---|
|---3------3----3-3-5-5----5--|---5------5----5-5-7-7--7-7---|
|---3------3----3-3-3-3----3--|---5------5----5-5-5-5--5-4---|
|---1------1----1-1-3-3----3--|---3------3----3-3-5-5--5-4---|

                                                
|--(0)----(0)-----------------|--(0)----(0)---------------------|
|--(0)----(0)-----------------|--(0)----(0)---------(0)----(0)--|
|--(2)----(2)-------5-5----5--|--(4)----(4)-------4-(4)----(4)--|
|---3------3----3-3-5-5----5--|---5------5----5-5-5--5------5---|
|---3------3----3-3-3-3----3--|---5------5----5-5-5--5------5---|
|---1------1----1-1-3-3----3--|---3------3----3-3-3--3------3---|

                                                
|--0----0------0--0-0-----0-0--|--(0)----(0)---------------------|
|--0----0--0---0--0-0-0-0-0-0--|--(0)----(0)---------(0)----(0)--|
|--6----6--6-6g7--7-7-7-7-6-6--|--(4)----(4)----4--4-(4)----(4)--|
|--7----7--7---7--7-7-7-7-7-7--|---5------5---5-5--5--5------5---|
|--0----0--0---0--0-0-0-0-0-0--|---5------5---5-5--5--5------5---|
|------------------------------|---3------3---3-3--3--3------3---|

                                                      
|--(0)----(0)---------------------|--(0)----(0)---------------------|
|--(0)----(0)---------(0)----(0)--|--(0)----(0)---------(0)----(0)--|
|--(2)----(2)----2--2-(2)----(2)--|--(4)----(4)----4--4-(4)----(4)--|
|---3------3---3-3--3--3------3---|---5------5---5-5--5--5------5---|
|---3------3---3-3--3--3------3---|---5------5---5-5--5--5------5---|
|---1------1---1-1--1--1------1---|---3------3---3-3--3--3------3---|

                                   
|-------------------------|---------------------------|
|-------------------------|---------------------------|
|--6----6---6-6-6-6----6--|--2----2---2-2-5-5---5-5-5-|
|--7----7---7-7-7-7----7--|--3----3---3-3-5-5---5-5-5-|
|--7----7---7-7-7-7----7--|--3----3---3-3-3-3---3-3-3-|
|--5----5---5-5-5-5----5--|--1----1---1-1-------------|

                                     
|----------------------------|-------------------------|
|----------------------------|-------------------------|
|--4----4--4-5--5-5-5-5-4-4--|--6----6---6-6-6-6----6--|
|--5----5--5-5--5-5-5-5-5-5--|--7----7---7-7-7-7----7--|
|--5----5--5-5--5-5-5-5-5-5--|--7----7---7-7-7-7----7--|
|--3----3--3-3--3-3-3-3-3-3--|--5----5---5-5-5-5----5--|

                                    
|---------------------------|----------------------------|
|---------------------------|----------------------------|
|--2----2---2-2-5-5---5-5-5-|--4----4--4-5--5-5-5-5-4-4--|
|--3----3---3-3-5-5---5-5-5-|--5----5--5-5--5-5-5-5-5-5--|
|--3----3---3-3-3-3---3-3-3-|--5----5--5-5--5-5-5-5-5-5--|
|--1----1---1-1-------------|--3----3--3-3--3-3-3-3-3-3--|

                                
|-------------------------|---------------------------|
|-------------------------|---------------------------|
|--6----6---6-6-6-6----6--|--2----2---2-2-5-5---5-5-5-|
|--7----7---7-7-7-7----7--|--3----3---3-3-5-5---5-5-5-|
|--7----7---7-7-7-7----7--|--3----3---3-3-3-3---3-3-3-|
|--5----5---5-5-5-5----5--|--1----1---1-1-------------|

                                     
|----------------------------|-------------------------|
|----------------------------|-------------------------|
|--4----4--4-5--5-5-5-5-4-4--|--6----6---6-6-6-6----6--|
|--5----5--5-5--5-5-5-5-5-5--|--7----7---7-7-7-7----7--|
|--5----5--5-5--5-5-5-5-5-5--|--7----7---7-7-7-7----7--|
|--3----3--3-3--3-3-3-3-3-3--|--5----5---5-5-5-5----5--|

                                    
|---------------------------|----------------------------|
|---------------------------|----------------------------|
|--2----2---2-2-5-5---5-5-5-|--4----4--4-5--5-5-5-5-4-4--|
|--3----3---3-3-5-5---5-5-5-|--5----5--5-5--5-5-5-5-5-5--|
|--3----3---3-3-3-3---3-3-3-|--5----5--5-5--5-5-5-5-5-5--|
|--1----1---1-1-------------|--3----3--3-3--3-3-3-3-3-3--|

                                                
|--0----0------0--0-0-----0-0--|--(0)----(0)---------------------|
|--0----0--0---0--0-0-0-0-0-0--|--(0)----(0)---------(0)----(0)--|
|--6----6--6-6g7--7-7-7-7-6-6--|--(4)----(4)----4--4-(4)----(4)--|
|--7----7--7---7--7-7-7-7-7-7--|---5------5---5-5--5--5------5---|
|--0----0--0---0--0-0-0-0-0-0--|---5------5---5-5--5--5------5---|
|------------------------------|---3------3---3-3--3--3------3---|

                                                      
|--(0)----(0)---------------------|--(0)----(0)---------------------|
|--(0)----(0)---------(0)----(0)--|--(0)----(0)---------(0)----(0)--|
|--(2)----(2)----2--2-(2)----(2)--|--(4)----(4)----4--4-(4)----(4)--|
|---3------3---3-3--3--3------3---|---5------5---5-5--5--5------5---|
|---3------3---3-3--3--3------3---|---5------5---5-5--5--5------5---|
|---1------1---1-1--1--1------1---|---3------3---3-3--3--3------3---|

                                                
|--0----0------0--0-0-----0-0--|--(0)----(0)---------------------|
|--0----0--0---0--0-0-0-0-0-0--|--(0)----(0)---------(0)----(0)--|
|--6----6--6-6g7--7-7-7-7-6-6--|--(4)----(4)----4--4-(4)----(4)--|
|--7----7--7---7--7-7-7-7-7-7--|---5------5---5-5--5--5------5---|
|--0----0--0---0--0-0-0-0-0-0--|---5------5---5-5--5--5------5---|
|------------------------------|---3------3---3-3--3--3------3---|

                                                      
|--(0)----(0)---------------------|--(0)----(0)---------------------|
|--(0)----(0)---------(0)----(0)--|--(0)----(0)---------(0)----(0)--|
|--(2)----(2)----2--2-(2)----(2)--|--(4)----(4)----4--4-(4)----(4)--|
|---3------3---3-3--3--3------3---|---5------5---5-5--5--5------5---|
|---3------3---3-3--3--3------3---|---5------5---5-5--5--5------5---|
|---1------1---1-1--1--1------1---|---3------3---3-3--3--3------3---|

                                    
|--0----------------|-------------------|-------------------||
|--0----------------|-------------------|-------------------||
|--6----------------|-------------------|-------------------||
|--7----------------|-------------------|-------------------||
|--0----------------|-------------------|-------------------||
|-------------------|-------------------|-------------------||


Outro Solo:                                        
|----------------------------------------------------|
|--12------------------------------------------------|
|--14b----14b~-14pb~--14pb~--16-14----16g17-16-14----|
|----------------------------------17-------------17-|
|----------------------------------------------------|
|----------------------------------------------------|

                                       
|----------------------------------------------------|
|--12-----12------------------13---------------17-17-|
|--14b----14b~---14-12-12-14----14~--L---------------|
|----------------------------------------------------|
|----------------------------------------------------|
|---------------------------------------12--0--------|
                                                      
                                     
|--15-12-----------------------------------------------------|
|------------------------------------------------------------|
|---------9-7-5-5----------------------------------17-17-17--|
|------------------7-5-7--------2-0-2------------------------|
|-----------------------------3-------3-5-3-----3~-----------|
|-------------------------3-5---------------3-5--------------|
                                                   
                                           
|------------------------------------------------------------|
|------------------------------------------------------------|
|--14-12-17-12-14-12-17-12-14-12-17-12-14-12-17-12-17~--17~--|
|------------------------------------------------------------|
|------------------------------------------------------------|
|------------------------------------------------------------|

                                 
|----------------------------------------------------------|
|----------------------------------------------------------|
|--0-5-0-2-0-2-0-5-0-2-5-2-0-5-0-2-5-2-0-5-0-2-5-2-2~--2~--|
|----------------------------------------------------------|
|----------------------------------------------------------|
|----------------------------------------------------------|

                                      
|---------------------------------------------------------------|
|---------------------------------------------------------------|
|--5-7-5---5-9-5-9-5---5-7-5-7-5---5-9-5---5-7-5-7---9~----9~---|
|---------7-----------7-----------7-------7---------------------|
|---------------------------------------------------------------|
|---------------------------------------------------------------|

                                                       
|-----12-------12----------------12-------12-------12----------12-----------------|
|--12----12-13----13-12-13-12-13----13-12----12-13----13-12-13----13-12-13-13~--1-|
|---------------------------------------------------------------------------------|
|---------------------------------------------------------------------------------|
|---------------------------------------------------------------------------------|
|---------------------------------------------------------------------------------|

                                        
|---------------------------------------------------------|
|--------------------------12-----------------------------|
|--14-14-12----------------12-----------------12----------|
|--14-------12-13-12-13-12----12-13-12-10----12----10-----|
|------------------------------------------12----12----12-|
|---------------------------------------------------------|
                                        
                                                      
|----------------------|-------------------|-----------||
|----------------------|-------------------|-----------||
|----9~----------------|-------------------|-----------||
|----------------------|-------------------|-----------||
|----------------------|-------------------|-----------||
|----------------------|-------------------|-----------||
comments
We did not receive enough feedback on this tab! Please rate:
1 2 3 4 5
2 comments total.
0 reply
jjhand wrote on April 2 2009, 02:38 pm

You could write a part that is repeated once and tell the reader how many times to play it, otherwise its easy to get lost in all of your tab lines. You probably have the most complete version of this song, which is good, but its so lengthy.

0 reply
jjhand wrote on April 2 2009, 02:40 pm

Also note the upstroke chords that start with the highest string first, since this song uses that a lot

I want to post or [tab]
guest
You may want to rate the tab now too:
select rating
Please do not post tabs as comments. Select "correction" instead!