Oops, an error
Loading. Please wait.

Coeur Dalene Tab

ver2
ver2

Whole song

Interactive

More versions @911Tabs.com
5,232 views 6 this week
8 commentsread comments
1 2 3 4 5
accurate
x 9
Autoscroll
+/-
esc
set tempo
stop
Contributor
Difficulty
Tuning
intermediate
C# G# C# F# A# D#
WARNING: You are trying to view
                                    content from Ultimate-Guitar.com
                                    in an unauthorized application,
                                    which is prohibited.

                                    Please use an official Ultimate
                                    Guitar Tabs application for iPhone,
                                    iPad or Android to access legitimate
                                    chords, guitar, bass, and drum tabs
                                    from Ultimate-Guitar.com database.

                                    Type "ultimate guitar tabs" in Apple
                                    App Store's or Android Market's
                                    search to find the application.
ALTER BRIDGE – Coeur D’ Alene    
Tabbed by AlterTremonti (Justin Taylor)

Tuning – Drop C# (C# G# C# F# A# D#)

Guitar 1: Myles Kennedy
Guitar 2: Mark Tremonti

Song Order:
Intro
Verse 1
Chorus 1
Verse 2
Chorus 2
Bridge
Chorus 3
Solo
Outro

INTRO
Intro  Guitar 1  Clean/Slight Dist.  2x
eb|-----------------|-----------------|------------------|------------------|
Bb|-----------------|-----------------|------------------|------------------|
Gb|-----------------|-----------------|------------------|------------------|
Db|-4--/7-------5p4-|-5---/8----------|-4--/7-------5p4--|-5----------------|
Ab|-----------------|-----------------|------------------|------------------|
Db|-0-0-0-0-0-0-0--0|--0-0-0-0-0-0-0-0|-0-0-0-0-0-0-0-0-0|--0-0-0-0-0-0-0-0-|



Intro Guitar 2  Riff 1  Dist.  (0:11)
Eb|-----------------------------------|---------------|
Bb|-----------------------------------|---------------|
Gb|-----------------------------------|---------------|
Db|-----------------------------------|---------------|
Ab|-----------------------------------|---------------|
Db|-0-0-13\12-0-0--0-0h8/11\7--0-0-0--|---------------|
PM  * *       *    *           *              

Eb|-----------------------------------|--------------------------------|
Bb|-----------------------------------|--------------------------------|
Gb|-----------------------------------|--------------------------------|
Db|-----------------------------------|--------------------------------|
Ab|----------------------------------|--------------------------------|
Db|-0-0-13\12-0-0--0-0h8/11\7--0-0-0--|0-0-0-0-0-0-0-0-0-0-0-0-0-0-0-0-|
PM  * *       *    *           *       natural harmonics**************      



Intro  Guitar 1  Riff 2  (0:23)  3x
Eb|-------------------------------------|----------------------------------|
Bb|-------------------------------------|----------------------------------|
Gb|-------------------------------------|----------------------------------|
Db|-------------------------------------|--------------------------3-2-1---|
Ab|--0-0-13\12-0-0--0-0-0-8/11\7-0-0-0--|--0-0-8\7-0-0--0-0-8-7-0--3-2-1---|
Db|--0-0-13\12-0-0--0-0-0h8/11\7-0-0-0--|--0-0-8\7-0-0--0-0-8-7-0--3-2-1---|
 PM  * *       *    * *          *         * *     *    * * 

Eb|-------------------------------------|-----------------------------------|
Bb|-------------------------------------|-----------------------------------|
Gb|-------------------------------------|-----------------------------------|
Db|-------------------------------------|--------------------------3-2-1--0-|
Ab|--0-0-13\12-0-0--0-0-0-8/11\7-0-0-0--|--0-0-8\7-0-0--0-0-8-7-0--3-2-1--0-|
Db|--0-0-13\12-0-0--0-0-0h8/11\7-0-0-0--|--0-0-8\7-0-0--0-0-8-7-0--3-2-1--0-|
 PM  * *       *    * *          *         * *     *    * * 


Intro  Guitar 1  (0:33)
Eb|-------------------------------------------|
Bb|-7----10-10-10-10-10-10-10-10-10-10-10-10--|
Gb|-------------------------------------------|
Db|-4----7--7--7--7--7--7--7--7--7--7--7--7---|
Ab|-------------------------------------------|
Db|-------------------------------------------|

Eb|----------------------------------------------------|
Bb|-8--8--8--8---11-11-11-11-11-11-11-11-11-11-11-11---|
Gb|----------------------------------------------------|
Db|-5--5--5--5---8--8--8--8--8--8--8--8--8--8--8--8----|
Ab|----------------------------------------------------|
Db|----------------------------------------------------|

Eb|-------------------------------------------|
Bb|-7----10-10-10-10-10-10-10-10-10-10-10-10--|
Gb|-------------------------------------------|
Db|-4----7--7--7--7--7--7--7--7--7--7--7--7---|
Ab|-------------------------------------------|
Db|-------------------------------------------|

Eb|----------------------------------------------------------|
Bb|-8--8--8--8—-8--8--8--8--8--8--8--8--8--8--8--8-----------|
Gb|----------------------------------------------------------|
Db|-5--5--5--5--5--5--5--5--5--5--5--5--5--5--5--5-----------|
Ab|----------------------------bend up~~~~~~~~~~~~-----------|
Db|----------------------------------------------------------|



VERSE 1
Verse 1  Guitar 1  2x  (0:43)
Eb|---------|---------|--------|---------|---------|---------|---------|
Bb|-5-------|---------|-5------|---------|-8-------|-6-------|-3-------|
Gb|-3-------|-7-------|-3------|-7-------|-0-------|-0-------|-2-------|
Db|-0-------|-4-------|-0------|-4-------|-10------|-8-------|-0-------|
Gb|---------|-0-------|--------|-0-------|-x-------|-x-------|-0-------|
Db|---------|---------|--------|---------|-10------|-8-------|-0-------|


Verse 1  Guitar 2  3x  (1:04)
Eb|----------------------------------------------------|
Bb|----------------------------------------------------|
Gb|----------------------------------------------------|
Db|----------------------------------------------------|
Ab|----------------------------------------------------|
Db|-0-0-0-1---1h2~--0-0-0-1---1h2~--0-0-0-1---1h2~-0---|
PM  * * *           * * *           * * *          

Eb|-------------------------------------|-----------------------------------|
Bb|-------------------------------------|-----------------------------------|
Gb|-------------------------------------|-----------------------------------|
Db|-------------------------------------|--------------------------3-2-1----|
Ab|-------------------------------------|-------------------8-7-0--3-2-1----|
Db|--0-0-13\12-0-0--0-0-0h8/11\7-0-0-0--|--0-0-8\7-0-0--0-0-8-7-0--3-2-1----|
 PM  * *       *    * *          *         * *     *    * * 



CHORUS 1
Chorus 1  Guitars 1 & 2  (1:25)
Eb|----------------------------------------------------------------------|
Bb|----------------------------------------------------------------------|
Gb|--3---3--3-3-3--2--2--0--5---5--5-5-5--4--4--0--3---3--3-3-3--2--2----|
Db|--3---3--3-3-3--3--3--0--5---5--5-5-5--5--5--0--3---3--3-3-3--3--3----|
Ab|--1---1--1-1-1--0--0-----3---3--3-3-3--3--3-----1---1--1-1-1--0--0----|
Db|----------------------------------------------------------------------|

Eb|-------------------------------------|
Bb|-------------------------------------|
Gb|-------------------------------------|
Db|-------------------------------------|
Ab|--0-0-13\12-0-0--0-0-0-8/11\7-0-0----|
Db|--0-0-13\12-0-0--0-0-0h8/11\7-0-0----| 
 PM  * *       *    * *          *        

Eb|----------------------------------------------------------------------|
Bb|----------------------------------------------------------------------|
Gb|--3---3--3-3-3--2--2--0--5---5--5-5-5--4--4--0--3---3--3-3-3--2--2----|
Db|--3---3--3-3-3--3--3--0--5---5--5-5-5--5--5--0--3---3--3-3-3--3--3----|
Ab|--1---1--1-1-1--0--0-----3---3--3-3-3--3--3-----1---1--1-1-1--0--0----|
Db|----------------------------------------------------------------------|
 
Eb|-------------------------------------|-----------------------------------|
Bb|-------------------------------------|-----------------------------------|
Gb|-------------------------------------|-----------------------------------|
Db|-------------------------------------|--------------------------3-2-1--0-|
Ab|--0-0-13\12-0-0--0-0-0-8/11\7-0-0-0--|--0-0-8\7-0-0--0-0-8-7-0--3-2-1--0-|
Db|--0-0-13\12-0-0--0-0-0h8/11\7-0-0-0--|--0-0-8\7-0-0--0-0-8-7-0--3-2-1--0-|
 PM  * *       *    * *          *         * *     *    * * 



VERSE 2
Verse 2  Guitar 1  2x  (1:49)
Eb|---------|---------|--------|---------|---------|---------|---------|
Bb|-5-------|---------|-5------|---------|-8-------|-6-------|-3-------|
Gb|-3-------|-7-------|-3------|-7-------|-0-------|-0-------|-2-------|
Db|-0-------|-4-------|-0------|-4-------|-10------|-8-------|-0-------|
Gb|---------|-0-------|--------|-0-------|-x-------|-x-------|-0-------|
Db|---------|---------|--------|---------|-10------|-8-------|-0-------|

Verse 1  Guitar 2  3x  (2:10)
Eb|----------------------------------------------------|
Bb|----------------------------------------------------|
Gb|----------------------------------------------------|
Db|----------------------------------------------------|
Ab|----------------------------------------------------|
Db|-0-0-0-1---1h2~--0-0-0-1---1h2~--0-0-0-1---1h2~-0---|
PM  * * *           * * *           * * *        

Eb|-------------------------------------|-----------------------------------|
Bb|-------------------------------------|-----------------------------------|
Gb|-------------------------------------|-----------------------------------|
Db|-------------------------------------|--------------------------3-2-1----|
Ab|-------------------------------------|-------------------8-7-0--3-2-1----|
Db|--0-0-13\12-0-0--0-0-0h8/11\7-0-0-0--|--0-0-8\7-0-0--0-0-8-7-0--3-2-1----|
 PM  * *       *    * *          *         * *     *    * * 



CHORUS 2
Chorus 2  Guitar 1  (2:31)
Eb|----------------------------------------------------------------------|
Bb|----------------------------------------------------------------------|
Gb|--3---3--3-3-3--2--2--0--5---5--5-5-5--4--4--0--3---3--3-3-3--2--2----|
Db|--3---3--3-3-3--3--3--0--5---5--5-5-5--5--5--0--3---3--3-3-3--3--3----|
Ab|--1---1--1-1-1--0--0-----3---3--3-3-3--3--3-----1---1--1-1-1--0--0----|
Db|----------------------------------------------------------------------|

Eb|-------------------------------------|
Bb|-------------------------------------|
Gb|-------------------------------------|
Db|-------------------------------------|
Ab|--0-0-13\12-0-0--0-0-0-8/11\7-0-0----|
Db|--0-0-13\12-0-0--0-0-0h8/11\7-0-0----| 
 PM  * *       *    * *          *        

Eb|----------------------------------------------------------------------|
Bb|----------------------------------------------------------------------|
Gb|--3---3--3-3-3--2--2--0--5---5--5-5-5--4--4--0--3---3--3-3-3--2--2----|
Db|--3---3--3-3-3--3--3--0--5---5--5-5-5--5--5--0--3---3--3-3-3--3--3----|
Ab|--1---1--1-1-1--0--0-----3---3--3-3-3--3--3-----1---1--1-1-1--0--0----|
Db|----------------------------------------------------------------------|


Chorus 2  Guitar 2  (2:31)
Eb|---------------------------------|--------------------------12h13p12--|
Bb|-10h11p10-----10h11p10-----13~~--|-10h11p10-----10h11p10--------------|
Gb|---------10-----------10---------|---------10-----------10------------|
Db|-----------12-----------12-------|-----------12-----------12----------|
Ab|---------------------------------|------------------------------------|
Db|---------------------------------|------------------------------------|

Eb|--------------------------------|-------------------------|
Bb|-10h11p10-----10h11p10----------|-------------------------|
Gb|---------10-----------10--------|-------------------------|
Db|-----------12-----------12-10~--|-12~~~-------------------|
Ab|--------------------------------|-------------------------|
Db|--------------------------------|-------------------------|



BRIDGE
Bridge  Guitars 1 & 2  4x  (2:50)
Eb|---------------------------10-----|---------------------------------|
Bb|---------------------------13b15--|---------------------------------|
Gb|----------------------------------|---------------------------------|
Db|----------------------------------|---------------------------------|
Ab|-13p12-13p12-0---10h12-0-0--------|-10-12-4----10-12-3----3-5-1-----|
Eb|-13p12-13p12-0---10h12-0-0--------|-10-12-4----10-12-3----3-5-1-----|


Bridge  Guitar 2 (3:10)
Eb|----------------------|--------------------------------------------|
Bb|----------------------|--------------------------------------------|
Gb|----------------------|--------------------------------------------|
Db|-0---7---5---12-------|-0---7-------------------5555555555555555---|
Ab|-0---5---5---8--------|-0---5--5-5-5-5-5-5-5-5--5555555555555555---|
Db|-0---4---5---8--------|-0---4--5-5-5-5-5-5-5-5--5555555555555555---|
PM                                  * * * * * * *

Bridge  Guitar 1  (3:10)
Eb|-14------17~~~~~---15-----18~~~~~--|-15~~~~~~~~~-----------------|
Bb|-17b19---20b22~~---18b20--21b23~~--|-18b20~~~~~~-----------------|
Gb|-----------------------------------|-----------------------------|
Db|-----------------------------------|-----------------------------|
Ab|-----------------------------------|-----------------------------|
Db|-----------------------------------|-----------------------------|



CHORUS 3
Chorus 3  Guitars 1 & 2  (3:21)
Eb|----------------------------------------------------------------------|
Bb|----------------------------------------------------------------------|
Gb|--3---3--3-3-3--2--2--0--5---5--5-5-5--4--4--0--3---3--3-3-3--2--2----|
Db|--3---3--3-3-3--3--3--0--5---5--5-5-5--5--5--0--3---3--3-3-3--3--3----|
Ab|--1---1--1-1-1--0--0-----3---3--3-3-3--3--3-----1---1--1-1-1--0--0----|
Db|----------------------------------------------------------------------|

Eb|-------------------------------------|
Bb|-------------------------------------|
Gb|-------------------------------------|
Db|-------------------------------------|
Ab|--0-0-13\12-0-0--0-0-0-8/11\7-0-0-0--|
Db|--0-0-13\12-0-0--0-0-0h8/11\7-0-0-0--| 
 PM  * *       *    * *          *        

Eb|----------------------------------------------------------------------|
Bb|----------------------------------------------------------------------|
Gb|--3---3--3-3-3--2--2--0--5---5--5-5-5--4--4--0--3---3--3-3-3--2--2----|
Db|--3---3--3-3-3--3--3--0--5---5--5-5-5--5--5--0--3---3--3-3-3--3--3----|
Ab|--1---1--1-1-1--0--0-----3---3--3-3-3--3--3-----1---1--1-1-1--0--0----|
Db|----------------------------------------------------------------------|

Eb|-------------------------------------|
Bb|-------------------------------------|
Gb|-------------------------------------|
Db|-------------------------------------|
Ab|--0-0-13\12-0-0--0-0-0-8/11\7-0-0-0--|
Db|--0-0-13\12-0-0--0-0-0h8/11\7-0-0-0--| 
 PM  * *       *    * *          *        



Chorus 3  Guitar 1  (3:21)
Eb|---------------------------------|--------------------------12h13p12--|
Bb|-10h11p10-----10h11p10-----13~~--|-10h11p10-----10h11p10--------------|
Gb|---------10-----------10---------|---------10-----------10------------|
Db|-----------12-----------12-------|-----------12-----------12----------|
Ab|---------------------------------|------------------------------------|
Db|---------------------------------|------------------------------------|

Eb|--------------------------------|-------------------------|
Bb|-10h11p10-----10h11p10----------|-------------------------|
Gb|---------10-----------10--------|-------------------------|
Db|-----------12-----------12-10~--|-12~~~-------------------|
Ab|--------------------------------|-------------------------|
Db|--------------------------------|-------------------------|



SOLO
Solo Rhythm  Guitar 1  (3:42)
Eb|----------------------------------------------------------------------|
Bb|----------------------------------------------------------------------|
Gb|--3---3--3-3-3--2--2--0--5---5--5-5-5--4--4--0--3---3--3-3-3--2--2----|
Db|--3---3--3-3-3--3--3--0--5---5--5-5-5--5--5--0--3---3--3-3-3--3--3----|
Ab|--1---1--1-1-1--0--0-----3---3--3-3-3--3--3-----1---1--1-1-1--0--0----|
Db|----------------------------------------------------------------------|

Eb|-------------------------------------|
Bb|-------------------------------------|
Gb|-------------------------------------|
Db|-------------------------------------|
Ab|--0-0-13\12-0-0--0-0-0-8/11\7-0-0-0--|
Db|--0-0-13\12-0-0--0-0-0h8/11\7-0-0-0--| 
 PM  * *       *    * *          *        
Eb|----------------------------------------------------------------------|
Bb|----------------------------------------------------------------------|
Gb|--3---3--3-3-3--2--2--0--5---5--5-5-5--4--4--0--3---3--3-3-3--2--2----|
Db|--3---3--3-3-3--3--3--0--5---5--5-5-5--5--5--0--3---3--3-3-3--3--3----|
Ab|--1---1--1-1-1--0--0-----3---3--3-3-3--3--3-----1---1--1-1-1--0--0----|
Db|----------------------------------------------------------------------|


Solo  Guitar 2  (3:40)
Eb|----10-12-12b13--b13r12~~~~~|--10-10------------------------|
Bb|----------------------------|-------b15r13-10---------------|
Gb|----------------------------|----------------13-12-10-------|
Db|----------------------------|------------------------12~~---|
Ab|----------------------------|-------------------------------|
Db|----------------------------|-------------------------------|

Eb|--------------------------------------|------------13\10~~~~\---|
Bb|------------------8-------------------|/13~~~-------------------|
Gb|-7-10-7-9-10PH\9------10-9--9-10/12---|-------------------------|
Db|----------------10--------10-------10-|-------------------------|
Ab|--------------------------------------|-------------------------|
Db|--------------------------------------|-------------------------|

Eb|----------------13----------------13-----17p13\12-13p12--------|
Bb|------13---11h13--------13---11h13----13----------------13-----|
Gb|-12h14—------------12h14---------------------------------------|
Db|---------------------------------------------------------------|
Ab|---------------------------------------------------------------|
Db|---------------------------------------------------------------|

Eb|-12------12-17p13p12-13p12--15~~~--/10-|-10----8------------------------|
Bb|---13--13-----------------13-------/10-|----10---11b13--8---------------|
Gb|-----12----------------------------/10-|------------------10PH-7\5---5--|
Db|---------------------------------------|---------------------------7----|
Ab|---------------------------------------|-------------------------------8|
Db|---------------------------------------|--------------------------------|

Eb|-----------------|------------------------|----------------------|
Bb|-----------------|------------------------|----------------------|
Gb|-----------------|------------------------|----------------------|
Db|-----------------|------------------------|----------------------|
Ab|-5~~~~~~---------|-(5~~~)-----0\__db___---|--4NH~~~~~------------|
Db|-----------------|------------------------|----------------------|



OUTRO
Outro  Guitar 1  (4:01)
Eb|-------------------------------------|----------------------------------|
Bb|-------------------------------------|----------------------------------|
Gb|-------------------------------------|----------------------------------|
Db|-------------------------------------|--------------------------3-2-1---|
Ab|--0-0-13\12-0-0--0-0-0-8/11\7-0-0-0--|--0-0-8\7-0-0--0-0-8-7-0--3-2-1---|
Db|--0-0-13\12-0-0--0-0-0h8/11\7-0-0-0--|--0-0-8\7-0-0--0-0-8-7-0--3-2-1---|
 PM  * *       *    * *          *         * *     *    * * 


Eb|-------------------------------------|----------------------------------|
Bb|-------------------------------------|----------------------------------|
Gb|-------------------------------------|----------------------------------|
Db|-------------------------------------|--------------------------3-2-1---|
Ab|--0-0-13\12-0-0--0-0-0-8/11\7-0-0-0--|--0-0-8\7-0-0--0-0-8-7-0--3-2-1---|
Db|--0-0-13\12-0-0--0-0-0h8/11\7-0-0-0--|--0-0-8\7-0-0--0-0-8-7-0--3-2-1---|
 PM  * *       *    * *          *         * *     *    * * 


Outro  Guitar 2  (4:11)
Eb|-------------------------------------|----------------------------------|
Bb|-------------------------------------|----------------------------------|
Gb|-------------------------------------|----------------------------------|
Db|-------------------------------------|--------------------------3-2-1---|
Ab|--0-0-13\12-0-0--0-0-0-8/11\7-0-0-0--|--0-0-8\7-0-0--0-0-8-7-0--3-2-1---|
Db|--0-0-13\12-0-0--0-0-0h8/11\7-0-0-0--|--0-0-8\7-0-0--0-0-8-7-0--3-2-1---|
 PM  * *       *    * *          *         * *     *    * * 

Eb|-------------------------------------|----------------------------------|
Bb|-------------------------------------|----------------------------------|
Gb|-------------------------------------|----------------------------------|
Db|-------------------------------------|--------------------------3-2-1---|
Ab|--0-0-13\12-0-0--0-0-0-8/11\7-0-0-0--|--0-0-8\7-0-0--0-0-8-7-0--3-2-1---|
Db|--0-0-13\12-0-0--0-0-0h8/11\7-0-0-0--|--0-0-8\7-0-0--0-0-8-7-0--3-2-1---|
 PM  * *       *    * *          *         * *     *    * * 


Outro  Guitar 1  (4:11)
Eb|-------------------------------------------|
Bb|-7----10-10-10-10-10-10-10-10-10-10-10-10--|
Gb|-------------------------------------------|
Db|-4----7--7--7--7--7--7--7--7--7--7--7--7---|
Ab|-------------------------------------------|
Db|-------------------------------------------|

Eb|----------------------------------------------------|
Bb|-8--8--8--8---11-11-11-11-11-11-11-11-11-11-11-11---|
Gb|----------------------------------------------------|
Db|-5--5--5--5---8--8--8--8--8--8--8--8--8--8--8--8----|
Ab|----------------------------------------------------|
Db|----------------------------------------------------|

Eb|-------------------------------------------|
Bb|-7----10-10-10-10-10-10-10-10-10-10-10-10--|
Gb|-------------------------------------------|
Db|-4----7--7--7--7--7--7--7--7--7--7--7--7---|
Ab|-------------------------------------------|
Db|-------------------------------------------|

Eb|----------------------------------------------------------|
Bb|-8--8--8--8—-8--8--8--8--8--8--8--8--8--8--8--8-----------|
Gb|----------------------------------------------------------|
Db|-5--5--5--5--5--5--5--5--5--5--5--5--5--5--5--5-----------|
Ab|----------------------------bend up~~~~~~~~~~~~-----------|
Db|----------------------------------------------------------|
comments
print report bad tab
8 comments total. Showing first comments.
0 reply
365_days_gone wrote on January 7 2011, 08:31 am

pretty much a copy and paste with some changes that are incorrect. 2 stars.

0 reply
AlterTremonti wrote on January 7 2011, 09:55 pm

I tabbed this all on my own by ear... no copy an paste, I had it tabbed a while ago but was slow at submitting it. Also this is exactly how Mark plays it... seen them several times. Check out me playing it using THIS tab... http://www.youtube.com/watch?v=pgOvNYBOVnE

0 reply
JimBonJovi wrote on January 9 2011, 03:26 pm

Your chorus doesn't match the song. here's what it should be.

Chorus - play 2x
|---------------------------|--------------------------|
|---------------------------|--------------------------|
|-3----3-3----3-------------|-5----5-5----5-----4----4-|
|-3----3-3----3----3----3---|-5----5-5----5-----5----5-|
|-1----1-1----1----0----0---|-3----3-3----3-----2----2-|
|---------------------------|--------------------------|

|----------------------------|
|----------------------------|
|-3----3-3----3--------------|
|-3----3-3----3-3-3-3----3---|
|-1----1-1----1-0-0-0----0---|
|----------------------------|

I want to post or [tab]
guest
You may want to rate the tab now too:
select rating
Please do not post tabs as comments. Select "correction" instead!