Oops, an error
Loading. Please wait.

Come To Life Tab

ver3
ver3

Whole song

Interactive

More versions @911Tabs.com
1,486 views 1 this week
1 commentread comment
1 2 3 4 5
worth learning
x 2
Autoscroll
+/-
esc
set tempo
stop
Contributor
Difficulty
intermediate
Hey! There's an official Ultimate Guitar app which is ideal
for learning songs when you're away from computer. Get the app
WARNING: You are trying to view
                                    content from Ultimate-Guitar.com
                                    in an unauthorized application,
                                    which is prohibited.

                                    Please use an official Ultimate
                                    Guitar Tabs application for iPhone,
                                    iPad or Android to access legitimate
                                    chords, guitar, bass, and drum tabs
                                    from Ultimate-Guitar.com database.

                                    Type "ultimate guitar tabs" in Apple
                                    App Store's or Android Market's
                                    search to find the application.
-------------------------------------------------------------------------------
                             Come To Life - Alter Bridge
-------------------------------------------------------------------------------
Tabbed by: mTmtremonti
Email: mTm_zero95@hotmail.com

Band:   Alter Bridge
Song:   Come To Life
Album:  Blackbird
Track:  2/13

Tuning: Guitar 1 (Bb,Ab,Db,Gb,Bb,eb) [Mark Tremonti]
        Guitar 2 (Bb,Ab,Db,Gb,Bb,eb) [Myles Kennedy]


Come to Life is a great song by Alter Bridge, and is home to what has now become
one of Mark Tremonti's more recognizable riffs. The verses in this song give
off a unique vibe due to the effects on Myle's Voice coupled with the
palm muting/wah-pedal combo from the guitars. Mark and Myles sometimes use hammer-ons and
pull-offs on the pre-verses, verses, and outro, as they always speed up their
songs when playing live. This tab may or may not be completely correct, but should give
you a decent idea of how to play the song. Please leave comments, corrections
and/or criticisms down in the comments section. And now, to you, I present my 2nd tab!!



Intro:


Guitar 1
eb|---------------------------------------------------------------------------|-|
Bb|---------------------------------------------------------------------------| |
Gb|---------------------------------------------------------------------------| |
Db|---------------------------------------------------------------------------| |
Ab|------14-12~-15-14br--12---15-14~-------14-12~-15-14br--12-----------------| |
Bb|-0-0--------------------13~---------0-0-------------------13~--13-13-------| |
PM                                                                              |
                                                                                |
Guitar 2                                                                        |
eb|---------------------------------------------------------------------------| |
Bb|---------------------------------------------------------------------------| |
Gb|---------------------------------------------------------------------------| |
Db|---------------------------------------------------------------------------| |
Ab|---------------------------------------------------------------------------| |
Bb|---------------------------------------------------------------------------|-|
PM

Guitar 1
eb|---------------------------------------------------------------------------|-|
Bb|---------------------------------------------------------------------------| |
Gb|---------------------------------------------------------------------------| |
Db|---------------------------------------------------------------------------| |
Ab|------14-12~-15-14br--12---15-14~-------14-12~-15-14b15~-------------------| |
Bb|-0-0--------------------13~---------0-0------------------------------------| |
PM                                                                              |
                                                                                |
Guitar 2                                                                        |
eb|---------------------------------------------------------------------------| |
Bb|---------------------------------------------------------------------------| |
Gb|---------------------------------------------------------------------------| |
Db|---------------------------------------------------------------------------| |
Ab|------14-12~-15-14br--12---15-14~-------14-12~-15-14b15~-------------------| |
Bb|-0-0--------------------13~---------0-0------------------------------------|-|
PM


Pre-Verse:


Guitar 1
eb|---------------------------------------------------------------------------|-|
Bb|---------------------------------------------------------------------------| |
Gb|---------------------------------------------------------------------------| |
Db|---------------------------------------------------------------------------| |
Ab|----2-3----------0-2-----2-3----------0-2----2-3---------0-----------------| |
Bb|-0-0-0-0-1-0-0-7------0-0-0-0-1-0-0-7-----000-0-0-1-0-0-7------------------| |
PM                                           ..                                 |
                                                                                |
Guitar 2                                                                        |
eb|---------------------------------------------------------------------------| |
Bb|---------------------------------------------------------------------------| |
Gb|---------------------------------------------------------------------------| |
Db|---------------------------------------------------------------------------| |
Ab|----2-3----------0-2-----2-3----------0-2----2-3---------0-----------------| |
Bb|-0-0-0-0-1-0-0-7------0-0-0-0-1-0-0-7-----000-0-0-1-0-0-7------------------|-|
PM                                           ..

Guitar 1
eb|---------------------------------------------------------------------------|-|
Bb|---------------------------------------------------------------------------| |
Gb|---------------------------------------------------------------------------| |
Db|---------------------------------------------------------------------------| |
Ab|----8----8---8--8----------------------------------------------------------| |
Bb|---10---10---10-10----x-x-5--x-x--3PHb5~~~---------------------------------| |
PM                                                                              |
                                                                                |
Guitar 2                                                                        |
eb|---------------------------------------------------------------------------| |
Bb|---------------------------------------------------------------------------| |
Gb|---------------------------------------------------------------------------| |
Db|---------------------------------------------------------------------------| |
Ab|----8----8---8--8----------------------------------------------------------| |
Bb|---10---10---10-10----x-x-5--x-x--3PHb5~~~---------------------------------|-|
PM

Guitar 1
eb|---------------------------------------------------------------------------|-|
Bb|---------------------------------------------------------------------------| |
Gb|---------------------------------------------------------------------------| |
Db|---------------------------------------------------------------------------| |
Ab|----2-3----------0-2-----2-3----------0-2----2-3---------0-----------------| |
Bb|-0-0-0-0-1-0-0-7------0-0-0-0-1-0-0-7-----000-0-0-1-0-0-7------------------| |
PM                                           ..                                 |
                                                                                |
Guitar 2                                                                        |
eb|---------------------------------------------------------------------------| |
Bb|---------------------------------------------------------------------------| |
Gb|---------------------------------------------------------------------------| |
Db|---------------------------------------------------------------------------| |
Ab|----2-3----------0-2-----2-3----------0-2----2-3---------0-----------------| |
Bb|-0-0-0-0-1-0-0-7------0-0-0-0-1-0-0-7-----000-0-0-1-0-0-7------------------|-|
PM                                           ..


Guitar 1
eb|---------------------------------------------------------------------------|-|
Bb|---------------------------------------------------------------------------| |
Gb|---------------------------------------------------------------------------| |
Db|---------------------------------------------------------------------------| |
Ab|----8----8---8--8----------------------------------------------------------| |
Bb|---10---10---10-10----x-x-5--x-x--3PHb5~~~---------------------------------| |
PM                                                                              |
                                                                                |
Guitar 2                                                                        |
eb|---------------------------------------------------------------------------| |
Bb|---------------------------------------------------------------------------| |
Gb|---------------------------------------------------------------------------| |
Db|---------------------------------------------------------------------------| |
Ab|----8----8---8--8----------------------------------------------------------| |
Bb|---10---10---10-10----x-x-5--x-x--3PHb5~~~---------------------------------|-|
PM

1st Verse

Guitar 1
eb|---------------------------------------------------------------------------|-|
Bb|---------------------------------------------------------------------------| |
Gb|---------------------------------------------------------------------------| |
Db|---------------------------------------------------------------------------| |
Ab|----2-3----------0-2-----2-3----------0-2----2-3---------0-----------------| |
Bb|-0-0-0-0-1-0-0-7------0-0-0-0-1-0-0-7-----000-0-0-1-0-0-7------------------| |
PM  . ..... . . . . . .  . ..... . . . . . . ....... . . . .                    |
                                                                                |
Guitar 2                                                                        |
eb|---------------------------------------------------------------------------| |
Bb|---------------------------------------------------------------------------| |
Gb|---------------------------------------------------------------------------| |
Db|---------------------------------------------------------------------------| |
Ab|---------------------------------------------------------------------------| |
Bb|---------------------------------------------------------------------------|-|
PM

Guitar 1
eb|---------------------------------------------------------------------------|-|
Bb|---------------------------------------------------------------------------| |
Gb|---------------------------------------------------------------------------| |
Db|---------------------------------------------------------------------------| |
Ab|----8----8---8--8----------------------------------------------------------| |
Bb|---10---10---10-10----x-x-5--x-x--3~---------------------------------------| |
PM                                                                              |
                                                                                |
Guitar 2                                                                        |
eb|---------------------------------------------------------------------------| |
Bb|---------------------------------------------------------------------------| |
Gb|---------------------------------------------------------------------------| |
Db|---------------------------------------------------------------------------| |
Ab|----8----8---8--8----------------------------------------------------------| |
Bb|---10---10---10-10----x-x-5--x-x--3~---------------------------------------|-|
PM

 Guitar 1
eb|---------------------------------------------------------------------------|-|
Bb|---------------------------------------------------------------------------| |
Gb|---------------------------------------------------------------------------| |
Db|---------------------------------------------------------------------------| |
Ab|----2-3----------0-2-----2-3----------0-2----2-3---------0-----------------| |
Bb|-0-0-0-0-1-0-0-7------0-0-0-0-1-0-0-7-----000-0-0-1-0-0-7------------------| |
PM  . ..... . . . . . .  . ..... . . . . . . ....... . . . .                    |
                                                                                |
Guitar 2                                                                        |
eb|---------------------------------------------------------------------------| |
Bb|---------------------------------------------------------------------------| |
Gb|---------------------------------------------------------------------------| |
Db|---------------------------------------------------------------------------| |
Ab|---------------------------------------------------------------------------| |
Bb|---------------------------------------------------------------------------|-|
PM


Guitar 1
eb|---------------------------------------------------------------------------|-|
Bb|---------------------------------------------------------------------------| |
Gb|---------------------------------------------------------------------------| |
Db|---------------------------------------------------------------------------| |
Ab|----8----8---8--8----------------------------------------------------------| |
Bb|---10---10---10-10----x-x-5--x-x--3~---------------------------------------| |
PM                                                                              |
                                                                                |
Guitar 2                                                                        |
eb|---------------------------------------------------------------------------| |
Bb|---------------------------------------------------------------------------| |
Gb|---------------------------------------------------------------------------| |
Db|---------------------------------------------------------------------------| |
Ab|----8----8---8--8----------------------------------------------------------| |
Bb|---10---10---10-10----x-x-5--x-x--3~---------------------------------------|-|
PM


Pre-Chorus

Guitar 1
eb|---------------------------------------------------------------------------|-|
Bb|---------------------------------------------------------------------------| |
Gb|----8--8--88/9--9-9/12-12/14--11~------------------------------------------| |
Db|----x--x--xx/x--x-x/x--x--x---x--------------------------------------------| |
Ab|----6--6--66/7--7-7/10-10/12--9~-------------------------------------------| |
Bb|---------------------------------------------------------------------------| |
                                                                                |
Guitar 2                                                                        |
eb|---------------------------------------------------------------------------| |
Bb|---------------------------------------------------------------------------| |
Gb|----8--8--88/9--9-9/12-12/14--11~------------------------------------------| |
Db|----x--x--xx/x--x-x/x--x--x---x--------------------------------------------| |
Ab|----6--6--66/7--7-7/10-10/12--9~-------------------------------------------| |
Bb|---------------------------------------------------------------------------|-|


Chorus

Guitar 2
eb|---------------------------------------------------------------------------|-|
Bb|---------------------------------------------------------------------------| |
Gb|-4-4-44-44-4-4-/7-7-77-77-7-7--6-6-66-66-6-6-------------------------------| |
Db|-4-4-44-44-4-4-/x-x-xx-xx-x-x--x-x-xx-xx-x-x-------------------------------| |
Ab|-2-2-22-22-2-2-/5-5-55-55-5-5--4-4-44-44-4-4xx-10-10-xx-xx-7-xx-5----------| |
Bb|--------------------------------------------xx-8--8--xx-xx-5-xx-3----------| |
                                                                                |
                                                                                |  x2
Guitar 2                                                                        |
eb|---------------------------------------------------------------------------| |
Bb|----------------3-3-33-33-3-3--2-2-22-22-2-2-------------------------------| |
Gb|-4-4-44-44-4-4--4-4-44-44-4-4--2-2-22-22-2-2-------------------------------| |
Db|-4-4-44-44-4-4--4-4-44-44-4-4--2-2-22-22-2-2-------------------------------| |
Ab|-2-2-22-22-2-2--2-2-22-22-2-2--0-0-00-00-0-0-xx-10-10-xx-xx-7-xx-5---------| |
Bb|---------------------------------------------xx-8--8--xx-xx-5-xx-3---------|-|


Post-Chorus

Guitar 1
eb|---------------------------------------------------------------------------|-|
Bb|---------------------------------------------------------------------------| |
Gb|---------------------------------------------------------------------------| |
Db|---------------------------------------------------------------------------| |
Ab|----2-3----------0h2-:----2-3----------0h2---------------------------------| |
Bb|-0-0-0-0-1p0-0h7-----:-0---0-0-1p0-0h7-------------------------------------| |
PM                                                                              |
                                                                                |
Guitar 2                                                                        |
eb|---------------------------------------------------------------------------| |
Bb|---------------------------------------------------------------------------| |
Gb|---------------------------------------------------------------------------| |
Db|---------------------------------------------------------------------------| |
Ab|----2-3----------0h2-:----2-3----------0h2---------------------------------| |
Bb|-0-0-0-0-1p0-0h7-----:-0---0-0-1p0-0h7-------------------------------------|-|
PM


Verse 2

Guitar 1
eb|---------------------------------------------------------------------------|-|
Bb|---------------------------------------------------------------------------| |
Gb|---------------------------------------------------------------------------| |
Db|---------------------------------------------------------------------------| |
Ab|----2-3----------0-2-----2-3----------0-2----2-3---------0-----------------| |
Bb|-0-0-0-0-1-0-0-7------0-0-0-0-1-0-0-7-----000-0-0-1-0-0-7------------------| |
PM  . ..... . . . . . .  . ..... . . . . . . ....... . . . .                    |
                                                                                |
Guitar 2 with wah                                                               |
eb|---------------------------------------------------------------------------| |
Bb|---------------------------------------------------------------------------| |
Gb|--4444444444444444444444444444444444444444444444444444444------------------| |
Db|--xxxxxxxxxxxxxxxxxxxxxxxxxxxxxxxxxxxxxxxxxxxxxxxxxxxxxxx------------------| |
Ab|--2222222222222222222222222222222222222222222222222222222------------------| |
Bb|---------------------------------------------------------------------------|-|
PM

Guitar 1
eb|---------------------------------------------------------------------------|-|
Bb|---------------------------------------------------------------------------| |
Gb|---------------------------------------------------------------------------| |
Db|---------------------------------------------------------------------------| |
Ab|----8----8---8--8----------------------------------------------------------| |
Bb|---10---10---10-10----x-x-5--x-x--3~---------------------------------------| |
PM                                                                              |
                                                                                |
Guitar 2                                                                        |
eb|---------------------------------------------------------------------------| |
Bb|---------------------------------------------------------------------------| |
Gb|---------------------------------------------------------------------------| |
Db|---------------------------------------------------------------------------| |
Ab|----8----8---8--8----------------------------------------------------------| |
Bb|---10---10---10-10----x-x-5--x-x--3~---------------------------------------|-|
PM

 Guitar 1
eb|---------------------------------------------------------------------------|-|
Bb|---------------------------------------------------------------------------| |
Gb|---------------------------------------------------------------------------| |
Db|---------------------------------------------------------------------------| |
Ab|----2-3----------0-2-----2-3----------0-2----2-3---------0-----------------| |
Bb|-0-0-0-0-1-0-0-7------0-0-0-0-1-0-0-7-----000-0-0-1-0-0-7------------------| |
PM  . ..... . . . . . .  . ..... . . . . . . ....... . . . .                    |
                                                                                |
Guitar 2 with wah                                                               |
eb|---------------------------------------------------------------------------| |
Bb|---------------------------------------------------------------------------| |
Gb|--4444444444444444444444444444444444444444444444444444444------------------| |
Db|--xxxxxxxxxxxxxxxxxxxxxxxxxxxxxxxxxxxxxxxxxxxxxxxxxxxxxxx------------------| |
Ab|--2222222222222222222222222222222222222222222222222222222------------------| |
Bb|---------------------------------------------------------------------------|-|
PM


Guitar 1
eb|---------------------------------------------------------------------------|-|
Bb|---------------------------------------------------------------------------| |
Gb|---------------------------------------------------------------------------| |
Db|---------------------------------------------------------------------------| |
Ab|----8----8---8--8----------------------------------------------------------| |
Bb|---10---10---10-10----x-x-5--x-x--3~---------------------------------------| |
PM                                                                              |
                                                                                |
Guitar 2                                                                        |
eb|---------------------------------------------------------------------------| |
Bb|---------------------------------------------------------------------------| |
Gb|---------------------------------------------------------------------------| |
Db|---------------------------------------------------------------------------| |
Ab|----8----8---8--8----------------------------------------------------------| |
Bb|---10---10---10-10----x-x-5--x-x--3~---------------------------------------|-|
PM


Pre-Chorus

Guitar 1
eb|---------------------------------------------------------------------------|-|
Bb|---------------------------------------------------------------------------| |
Gb|----8--8--88/9--9-9/12-12/14--11~------------------------------------------| |
Db|----x--x--xx/x--x-x/x--x--x---x--------------------------------------------| |
Ab|----6--6--66/7--7-7/10-10/12--9~-------------------------------------------| |
Bb|---------------------------------------------------------------------------| |
                                                                                |
Guitar 2                                                                        |
eb|---------------------------------------------------------------------------| |
Bb|---------------------------------------------------------------------------| |
Gb|----8--8--88/9--9-9/12-12/14--11~------------------------------------------| |
Db|----x--x--xx/x--x-x/x--x--x---x--------------------------------------------| |
Ab|----6--6--66/7--7-7/10-10/12--9~-------------------------------------------| |
Bb|---------------------------------------------------------------------------|-|


Chorus

Guitar 2
eb|---------------------------------------------------------------------------|-|
Bb|---------------------------------------------------------------------------| |
Gb|-4-4-44-44-4-4-/7-7-77-77-7-7---6-66-66-6-6--------------------------------| |
Db|-4-4-44-44-4-4-/x-x-xx-xx-x-x---x-xx-xx-x-x--------------------------------| |
Ab|-2-2-22-22-2-2-/5-5-55-55-5-5---4-44-44-4-4-xx-10-10-xx-xx-7-xx-5----------| |
Bb|--------------------------------------------xx-8--8--xx-xx-5-xx-3----------| |
                                                                                |
                                                                                |  x2
Guitar 2                                                                        |
eb|---------------------------------------------------------------------------| |
Bb|----------------3-3-33-33-3-3--2-2-22-22-2-2-------------------------------| |
Gb|-4-4-44-44-4-4--4-4-44-44-4-4--2-2-22-22-2-2-------------------------------| |
Db|-4-4-44-44-4-4--4-4-44-44-4-4--2-2-22-22-2-2-------------------------------| |
Ab|-2-2-22-22-2-2--2-2-22-22-2-2--0-0-00-00-0-0-xx-10-10-xx-xx-7-xx-5---------| |
Bb|---------------------------------------------xx-8--8--xx-xx-5-xx-3---------|-|


Pre-Solo

Guitar 1
eb|---------------------------------------------------------------------------|-|
Bb|---------------------------------------------------------------------------| |
Gb|----16-14~-12-14~--12-11~-9h11-7~---19-18~-16-18~--16-14~-12h14-11~--------| |
Db|---------------------------------------------------------------------------| |
Ab|---------------------------------------------------------------------------| |
Bb|-00-------0------00------0-------00-------0------00------0-----------------| |
                                                                                |
Guitar 2                                                                        |
eb|---------------------------------------------------------------------------| |
Bb|---------------------------------------------------------------------------| |
Gb|---------------------------------------------------------------------------| |
Db|---------------------------------------------------------------------------| |
Ab|----14-12~-10-12~--10-9~--7h9-5~----14-12~-10-12~--10-9~--7h9-5~-----------| |
Bb|-00-------0------00------0-------00------0-------00------0-----------------|-|


Solo        (taken from "Mark Tremonti: The Sound & The Story" DVD)

Guitar 1
eb|-----------10-14b-10-12--10-14p10--10-------------------17b19r17--15~------|-|
Bb|-10---10-14------------14--------14--14-10-14p10--12/22~-------------------| |
Gb|-9b14-------------------------------------------11-------------------------| |
Db|---------------------------------------------------------------------------| |
Ab|---------------------------------------------------------------------------| |
Bb|---------------------------------------------------------------------------| |
                                                                                |
Guitar 2                                                                        |
eb|---------------------------------------------------------------------------| |
Bb|---------------------------------------------------------------------------| |
Gb|---------------------------------------------------------------------------| |
Db|---------------------------------------------------------------------------| |
Ab|---------------------------------------------------------------------------| |
Bb|---------------------------------------------------------------------------|-|

Guitar 1
eb|-17p15p14------------------------------------------------------------------|-|
Bb|---------17p15p14h15h17p15p14----------------------------------------------| |
Gb|-----------------------------16p14p12h14h16p14p12--------------------------| |
Db|-------------------------------------------------16p14p12h14h16p14p12------| |
Ab|---------------------------------------------------------------------------| |
Bb|---------------------------------------------------------------------------| |
                                                                                |
Guitar 2                                                                        |
eb|---------------------------------------------------------------------------| |
Bb|---------------------------------------------------------------------------| |
Gb|---------------------------------------------------------------------------| |
Db|---------------------------------------------------------------------------| |
Ab|---------------------------------------------------------------------------| |
Bb|---------------------------------------------------------------------------|-|

Guitar 1
eb|---------------------------------------------------------------------------|-|
Bb|-------------------------------------------/14-15-17~-14-15-17~-14-15-17~--| |
Gb|---------------------------------------------------------------------------| |
Db|-------------------------11-12-14-11b12r11~--------------------------------| |
Ab|-16p14p12h14h16p14p12-17~--------------------------------------------------| |
Bb|---------------------------------------------------------------------------| |
                                                                                |
Guitar 2                                                                        |
eb|---------------------------------------------------------------------------| |
Bb|---------------------------------------------------------------------------| |
Gb|---------------------------------------------------------------------------| |
Db|---------------------------------------------------------------------------| |
Ab|---------------------------------------------------------------------------| |
Bb|---------------------------------------------------------------------------|-|

Guitar 1
eb|------------------------------------17b19r17~------------------------------|-|
Bb|-14-15-17-15-14-15~-14h15p14-17-15-----------------------------------------| |
Gb|----------------------------------14-------------------------19-19-21-19-21| |
Db|-----------------------------------------------19-19-21-19-21-21-----------| |
Ab|--------------------------------------------/21-21-------------------------| |
Bb|---------------------------------------------------------------------------| |
                                                                                |
Guitar 2                                                                        |
eb|---------------------------------------------------------------------------| |
Bb|---------------------------------------------------------------------------| |
Gb|---------------------------------------------------------------------------| |
Db|---------------------------------------------------------------------------| |
Ab|---------------------------------------------------------------------------| |
Bb|---------------------------------------------------------------------------|-|

Guitar 1
eb|-------------------19h21p19--19-21-22-21b22~22~22br21~-19-21-22~-19-21-22~-|-|
Bb|-19h20p19--19-20-22--------22----------------------------------------------| |
Gb|---------21----------------------------------------------------------------| |
Db|---------------------------------------------------------------------------| |
Ab|---------------------------------------------------------------------------| |
Bb|---------------------------------------------------------------------------| |
                                                                                |
Guitar 2                                                                        |
eb|---------------------------------------------------------------------------| |
Bb|---------------------------------------------------------------------------| |
Gb|---------------------------------------------------------------------------| |
Db|---------------------------------------------------------------------------| |
Ab|---------------------------------------------------------------------------| |
Bb|---------------------------------------------------------------------------|-|

Guitar 1
eb|-19-21-22-22b23r22-19--22-19~----------------------------------------------|-|
Bb|---------------------22----------------------------------------------------| |
Gb|---------------------------------------------------------------------------| |
Db|---------------------------------------------------------------------------| |
Ab|---------------------------------------------------------------------------| |
Bb|---------------------------------------------------------------------------| |
                                                                                |
Guitar 2                                                                        |
eb|---------------------------------------------------------------------------| |
Bb|---------------------------------------------------------------------------| |
Gb|---------------------------------------------------------------------------| |
Db|---------------------------------------------------------------------------| |
Ab|---------------------------------------------------------------------------| |
Bb|---------------------------------------------------------------------------|-|


Bridge

Guitar 1
eb|---------------------------------------------------------------------------|-|
Bb|---------------------------------------------------------------------------| |
Gb|---------------------------------------------------------------------------| |
Db|---------------------------------------------------------------------------| |
Ab|---------------------------------------------------------------------------| |
Bb|---------------------------------------------------------------------------| |
                                                                                |
Guitar 2    (??? Not sure about Guitar 2 ???)                                   |
eb|---------------------------------------------------------------------------| |
Bb|---------------------------------------------------------------------------| |
Gb|----8~-----9~-----12~----11~-----8~-----8~-----7~-----7~-78--8--8/10--10~--| |
Db|----x------x------x------x-------x------x------x------x--xx--x--x-x---x----| |
Ab|----6~-----7~-----10~----9~------6~-----6~-----5~-----5~-56--6--6/8---8~---| |
Bb|---------------------------------------------------------------------------|-|

Guitar 1
eb|---------------------------------------------------------------------------|-|
Bb|---------------------------------------------------------------------------| |
Gb|----8--8--88/9--9-9/12-12/14--11~----------12-x-11-x-9-x-11x-7-------------| |
Db|----x--x--xx/x--x-x/x--x--x---x------------x--x-x--x-x-x-x-x-x-------------| |
Ab|----6--6--66/7--7-7/10-10/12--9~-----------10-x-9--x-7-x-9-x-5-------------| |
Bb|------------------------------------00-------------------------------------| |
                                                                                |
Guitar 2                                                                        |
eb|---------------------------------------------------------------------------| |
Bb|---------------------------------------------------------------------------| |
Gb|----8--8--88/9--9-9/12-12/14--11~------------------------------------------| |
Db|----x--x--xx/x--x-x/x--x--x---x--------------------------------------------| |
Ab|----6--6--66/7--7-7/10-10/12--9~------------10-x-9-x-7-x-9-x-5-------------| |
Bb|------------------------------------00------8--x-7-x-5-x-7-x-7-------------|-|


Chorus

Guitar 1  (??? Not sure about Guitar 1 ???)
eb|---------------------------------------------------------------------------|-|
Bb|---------------------------------------------------------------------------| |
Gb|---8---8-88--/9--9-9/12-12-11~-6/8-88-7-7----------------------------------| |
Db|---x---x-xx--/x--x-x/x--x--x---x/x-xx-x-x----------------------------------| |
Ab|---6---6-66--/7--7-7/10-10-9~--4/6-66-5-5----xx-10-10-xx-xx-7-xx-5---------| |
Bb|---------------------------------------------xx-8--8--xx-xx-5-xx-3---------| |
                                                                                |   X2
Guitar 2                                                                        |
eb|---------------------------------------------------------------------------| |
Bb|----------------3-3-33-33-3-3--2-2-22-22-2-2-------------------------------| |
Gb|-4-4-44-44-4-4--4-4-44-44-4-4--2-2-22-22-2-2-------------------------------| |
Db|-4-4-44-44-4-4--4-4-44-44-4-4--2-2-22-22-2-2-------------------------------| |
Ab|-2-2-22-22-2-2--2-2-22-22-2-2--0-0-00-00-0-0-xx-10-10-xx-xx-7-xx-5---------| |
Bb|---------------------------------------------xx-8--8--xx-xx-5-xx-3---------|-|


Outro

Guitar 1
eb|---------------------------------------------------------------------------|-|
Bb|---------------------------------------------------------------------------| |
Gb|---------------------------------------------------------------------------| |
Db|---------------------------------------------------------------------------| |
Ab|----2-3----------0h2-:----2-3----------0h2----2-3---------0h2--------------| |
Bb|-0-0-0-0-1p0-0h7-----:-0---0-0-1p0-0h7-----000-0-0-1p0-0h7-----------------| |
PM                                            ..                                |
                                                                                |
Guitar 2                                                                        |
eb|---------------------------------------------------------------------------| |
Bb|---------------------------------------------------------------------------| |
Gb|---------------------------------------------------------------------------| |
Db|---------------------------------------------------------------------------| |
Ab|----2-3----------0h2-:----2-3----------0h2----2-3---------0h2--------------| |
Bb|-0-0-0-0-1p0-0h7-----:-0---0-0-1p0-0h7-----000-0-0-1p0-0h7-----------------|-|
PM                                            ..

Guitar 1
eb|---------------------------------------------------------------------------|-|
Bb|---------------------------------------------------------------------------| |
Gb|---------------------------------------------------------------------------| |
Db|---------------------------------------------------------------------------| |
Ab|--------0h2-------0h2---0h2-------0h2-------0h2---0h2----------------------| |
Bb|-1p0-0h7---1p0-0h7---0h7---1p0-0h7---1p0-0h7---0h7---0~--------------------| |
PM                                                                              |
                                                                                |
Guitar 2                                                                        |
eb|---------------------------------------------------------------------------| |
Bb|---------------------------------------------------------------------------| |
Gb|---------------------------------------------------------------------------| |
Db|---------------------------------------------------------------------------| |
Ab|--------0h2-------0h2---0h2-------0h2-------0h2---0h2----------------------| |
Bb|-1p0-0h7---1p0-0h7---0h7---1p0-0h7---1p0-0h7---0h7---0~--------------------|-|
PM                                                                                       
                                                                      |

**Optional**
Post Outro Effects  (Not Sure About this either)

Guitar 1
eb|---------------------------------------------------------------------------|-|
Bb|---------------------------------------------------------------------------| |
Gb|---------------------------------------------------------------------------| |
Db|---------------------------------------------------------------------------| |
Ab|---------------------------------------------------------------------------| |
Bb|(0~~~~Let~ring~throughout~~~~-)--------------------------------------------| |
                                                                                |
Guitar 2  Tremolo pick these notes                                              |
eb|-11------12-------15----14----12-----7-------------------------------------| |
Bb|---------------------------------------------------------------------------| |
Gb|---------------------------------------------------------------------------| |
Db|---------------------------------------------------------------------------| |
Ab|---------------------------------------------------------------------------| |
Bb|---------------------------------------------------------------------------|-|

************************************

| /   slide up
| \   slide down
| h   hammer-on
| p   pull-off
| ~   vibrato
| +   harmonic
| x   Mute note
| b   Bend
| pb  Pre-bend
| br  Bend release
| pbr Pre-bend release
| brb Bend release bend
| PM  Palm mute
| ( ) Let notes ring
| PH  Pinch harmonic
| :   staccatto/slap
| []  alternate notes

************************************
comments
We did not receive enough feedback on this tab! Please rate:
print report bad tab
1 2 3 4 5
1 comment total.
0 reply
mTmtremonti wrote on May 21 2012, 05:36 pm

Don't really like commenting on my own tab, but, to the person who voted it one star, at least tell me why, and give an attempt to tell me what I played wrong. Even if my tab is terrible, have the decency to help me improve upon my errors. (And there probably are quite a few errors, I might add...)

I want to post or [tab]
guest
You may want to rate the tab now too:
select rating
Please do not post tabs as comments. Select "correction" instead!