Oops, an error
Loading. Please wait.

Down To My Last Tab

ver3
ver3

Whole song

More versions @911Tabs.com
14,448 views 22 this week
4 commentsread comments
1 2 3 4 5
accurate
x 9
Autoscroll
+/-
esc
set tempo
stop
Contributor
WARNING: You are trying to view
                                    content from Ultimate-Guitar.com
                                    in an unauthorized application,
                                    which is prohibited.

                                    Please use an official Ultimate
                                    Guitar Tabs application for iPhone,
                                    iPad or Android to access legitimate
                                    chords, guitar, bass, and drum tabs
                                    from Ultimate-Guitar.com database.

                                    Type "ultimate guitar tabs" in Apple
                                    App Store's or Android Market's
                                    search to find the application.
Band- Alter Bridge
Song- Down To My Last

 F#m                Dsus2/A
      2 4 4 2 2 2          5 5 7 7 5 5

Gtr I (Eb Ab Db Gb Bb Eb) - 'Distortion'
Gtr II (Eb Ab Db Gb Bb Eb) - 'Electric'
Gtr III (Eb Ab Db Gb Bb Eb) - 'Acoustic'
Gtr IV (Eb Ab Db Gb Bb Eb) - 'Electric'

 Intro
  Q=75
            A
 1/4       4/4
  Gtr I
  S S S S    Q   E  S  S  S  S  S  S  +S   S  S  S
|---------|----------------------------------------|
|---------|----------------------------------------|
|---------|----------------------------------------|
|---9-9-9-|-11--11-11-12-12h14-14-12-(12)-11-11-12-|
|---0-0-0-|--0---0--0--0--0-----0--0--(0)--0--0--0-|
|---------|----------------------------------------|
|
| Gtrs II, III
| S S S S    Q   E  S  S  Q            S   S  S  S
|---------|--------------------------------------0-|
|-------0-|--2---2--2--2--2------------2---2--2--0-|
|---x-x-0-|--2---2--2--2--2------------2---2--2--1-|
|---x-x-0-|--2---2--2--2--2------------2---2--2----|
|---x-x-0-|--0---0--0--0--0------------0---0--0----|
|---------|----------------------------------------|


  E
   Q   E  S  S  S  S  S  S  +S   S  E
|--------------------------------------|
|--------------------------------------|
|--------------------------------------|
|-----------------------------------0--|
|-14--14-11-12-12h14-14-12-(12)-11--0--|
|--0---0--0--0--0-----0--0--(0)--0-----|
|
|  Q   E  S  S  E     S  S  +S   E.
|--0---0--0--0--0-----0--0--(0)--0-----|
|--0---0--0--0--0-----0--0--(0)--0-----|
|--1---1--1--1--1-----1--1--(1)--1-----|
|--2---2--2--2--2-----2--2--(2)--2-----|
|--2---2--2--2--2-----2--2--(2)--2-----|
|--0---0--0--0--0-----0--0--(0)--0-----|


  D/A
                          |------5-------|
   Q   E  S S  S  S S  S  T  T  T     T  T  T  T  T  T
|------------------------------------------------------|
|------------------------------------------------------|
|-11--11-11-9--9--9-9-11-11h12h14p===12p11-------------|
|--0---0--0-0--0--0-0----------------------14p12p11----|
|--0---0--0-0--0--0-0-------------------------------14-|
|------------------------------------------------------|
|
|  Q   E  S S +S  E    S  S       E.
|--2---2--2-2-(2)-2----2--2-------2--------------------|
|--3---3--3-3-(3)-3----3--3-------3--------------------|
|--2---2--2-2-(2)-2----2--2-------2--------------------|
|--0---0--0-0-(0)-0----0--0-------0--------------------|
|--0---0--0-0-(0)-0----0--0-------0--------------------|
|------------------------------------------------------|


  A         Asus4
   Q     E  S S +Q      S S     +S  S
|-------------------------------------||
|-------------------------------------||
|-------------------------------------||
|-11----11--9-9-(9)-----7-9b10==(9)r9-||
|--0-----0--0-0-(0)-----0-0-----(0)---||
|-------------------------------------||
|
|  E. S  E.   S +S  S Q          E
|-------------------------------------||
|--2--2--2----3-(3)-3-3---------------||
|--2--2--2----2-(2)-2-2---------------||
|--2--2--2----2-(2)-2-2----------0----||
|--0--0--0----0-(0)-0-0----------0----||
|-------------------------------------||


 Verse
  A         Asus4         A        E                Esus4            E
   >
   W                                +Q         H                   Q
|--------------------------------|------------------------------------------|
|--------------------------------|------------------------------------------|
|--------------------------------|------------------------------------------|
|-11-----------------------------|-(11)-------------------------------------|
|--0-----------------------------|--(0)-------------------------------------|
|--------------------------------|------------------------------------------|
|
|  Q   E  S  S  +E.  S  S  S S S     E   S  S  E  S  S  +E   S  S  S  S S S
|--------------------------------|------------------------------------------|
|--------------------------------|------------------------------------------|
|--------------------------------|------------------------------------------|
|-11--11-11-12-(12)-12-12-11-----|------------------------------------------|
|--0---0--0--0--(0)--0--0--0-0-0-|--11--11-11-11-11-12-(12)-12-12-12-11-----|
|--------------------------------|---0---0--0--0--0--0--(0)--0--0--0--0-0-0-|


  D/A                           A         Asus4
  Gtrs II, III
   Q   E  S S +E  S S S S S S    Q   E  S  S  +E   S  S  S  S S S
|-----------------------------|-----------------------------------|
|-----------------------------|-----------------------------------|
|-11--11-11-9-(9)-9-9-9s7-----|-----------------------------------|
|--0---0--0-0-(0)-0-0-0-------|-11--11-11-12-(12)-12-12-12-12-7-9-|
|--0---0--0-0-(0)-0-0-0---0-0-|--0---0--0--0--(0)--0--0--0--0-0-0-|
|-------------------------0-0-|-----------------------------------|


  A           Asus4            A        E            Esus4            E
   E. S  E  S  S  +E   S  S  S  S S S    E.  S  E  S  S  +S   E  S  S  S S S
|-------------------------------------|--------------------------------------|
|-------------------------------------|--------------------------------------|
|-------------------------------------|------------------------------------0-|
|-11----11-11-12-(12)-12-12-12-11-----|------------------------------------0-|
|--0--0--0--0--0--(0)--0--0--0--0-0-0-|-11--11-11-14-12-(12)-12-12-12-11-----|
|-------------------------------------|--0------0--0--0--(0)--0--0--0--0-0---|


  D/A
                       |----3----|
   Q   E  S S +E  S S  S     +S  S  S S
|---------------------------------------|
|---------------------------------------|
|-11--11-11-9-(9)-9-9-11b12r(11)p9------|
|--0---0--0-0-(0)-0-0--0-----------11-9-|
|--0---0--0-0-(0)-------------------0-0-|
|---------------------------------------|
|
| Gtr I
|  W
|---------------------------------------|
|---------------------------------------|
|---------------------------------------|
|---------------------------------------|
|---------------------------------------|
|---------------------------------------|


  A              Asus4               A
   E  S  S  E  S  S  +S   S  S  S  S  S  S S
|--------------------------------------------||
|--------------------------------------------||
|----14-14-14-14-14-(14)-14-14-14-14---------||
|-11-11-11-11-11-12-(12)-12-12-12-12-11-11-9-||
|--0--0--0--0--0--0--(0)--0--0--0--0--0--0-0-||
|--------------------------------------------||
|
|  H                  Q            S  S  S S
|--------------------------------------------||
|--------------------------------------------||
|--------------------------------------------||
|-------------------------------------9--9-9-||
|-------------------------------------0--0-0-||
|--------------------------------------------||


 Pre-Chorus
  $
  A
  Gtr I
   Q   E  S  S  S  S  S  S  +S   S  S  S
|----------------------------------------|
|----------------------------------------|
|----------------------------------------|
|-11--11-11-12-12h14-14-12-(12)-11-11-12-|
|--0---0--0--0--0-----0--0--(0)--0--0--0-|
|----------------------------------------|
|
| Gtrs II, III
|  Q   E  S  S  Q            S   S  S  S
|--------------------------------------0-|
|--2---2--2--2--2------------2---2--2--0-|
|--2---2--2--2--2------------2---2--2--1-|
|--2---2--2--2--2------------2---2--2----|
|--0---0--0--0--0------------0---0--0----|
|----------------------------------------|


  E
   Q   E  S  S  a  E  S  S  +S   S  S S
|---------------------------------------|
|---------------------------------------|
|---------------------------------------|
|---------------------------------------|
|-14--14-11-12-12h14-14-12-(12)-11--0-0-|
|--0---0--0--0-----0--0--0--(0)--0--0-0-|
|
|  Q   E  S  S     E  S  S  +S   E.
|--0---0--0--0-----0--0--0--(0)--0------|
|--0---0--0--0-----0--0--0--(0)--0------|
|--1---1--1--1-----1--1--1--(1)--1------|
|--2---2--2--2-----2--2--2--(2)--2------|
|--2---2--2--2-----2--2--2--(2)--2------|
|--0---0--0--0-----0--0--0--(0)--0------|


  D/A                               A         Asus4
   Q   E  S S  S  S S S  S S  S S   S  S  E    E   S  S  S   S  S  S  S  S S S
|---------------------------------|--------------------------------------------|
|---------------------------------|--------------------------------------------|
|-11--11-11-9--9--9-9-9-11-9------|--------------------------------------------|
|--0---0--0-0--0--0-0-0--0----7-9-|-9s11-11---11--11-12-12--12-12-12-12-11---9-|
|--0---0--0-0--0--0-0-0--0----0-0-|-0-----0----0---0--0--0---0--0--0--0--0-0-0-|
|---------------------------------|--------------------------------------------|
|
|  Q   E  S S +S  E   S  S E.       E.      S  E.     S +S   S  Q          E
|--2---2--2-2-(2)-2---2--2-2------|--------------------------------------------|
|--3---3--3-3-(3)-3---3--3-3------|-2-------2--2------3-(3)--3--3--------------|
|--2---2--2-2-(2)-2---2--2-2------|-2-------2--2------2-(2)--2--2--------------|
|--0---0--0-0-(0)-0---0--0-0------|-2-------2--2------2-(2)--2--2----------0---|
|--0---0--0-0-(0)-0---0--0-0------|-0-------0--0------0-(0)--0--0----------0---|
|---------------------------------|--------------------------------------------|


  A
   Q   E  S  S  S  S  S  S  +S   S  S  S
|----------------------------------------|
|----------------------------------------|
|----------------------------------------|
|-11--11-11-12-12h14-14-12-(12)-11-11-12-|
|--0---0--0--0--0-----0--0--(0)--0--0--0-|
|----------------------------------------|
|
|  Q   E  S  S  Q            S   S  S  S
|--------------------------------------0-|
|--2---2--2--2--2------------2---2--2--0-|
|--2---2--2--2--2------------2---2--2--1-|
|--2---2--2--2--2------------2---2--2----|
|--0---0--0--0--0------------0---0--0----|
|----------------------------------------|


  E
   Q   E  S  S  a  E  S  S  +S   S  S S
|---------------------------------------|
|---------------------------------------|
|---------------------------------------|
|---------------------------------------|
|-14--14-11-12-12h14-14-12-(12)-11--0-0-|
|--0---0--0--0-----0--0--0--(0)--0--0-0-|
|
|  Q   E  S  S     E  S  S  +S   E.
|--0---0--0--0-----0--0--0--(0)--0------|
|--0---0--0--0-----0--0--0--(0)--0------|
|--1---1--1--1-----1--1--1--(1)--1------|
|--2---2--2--2-----2--2--2--(2)--2------|
|--2---2--2--2-----2--2--2--(2)--2------|
|--0---0--0--0-----0--0--0--(0)--0------|


  F#m                          Dsus2/A
  Gtrs II, III
  E. S S S E +E    E Q         Q  E  S S +S  S  E     E   S   S
  |  | | | |  |    | |         |  |  | |  |  |  |     |   |   |
  /  / x x /  /    / /         /  /  / /  /  /  /     /   /   /

  Gtr I
  E. S S S E +S  S E S S S S   Q  E.   S  S  S  E     E   S   S
|----------------------------|-5--5----5--5--5--5-----5---------||
|----------------------------|-5--5----5--5--5--5-----5---0---0-||
|----------------------------|-7--7----7--7--7--7-----7---0---0-||
|----------------------------|-7--7----7--7--7--7-----7---0---0-||
|-4--4-x---4-(4)-4-4-4-4-0-0-|-5--5----5--5--5--5-----5---0---0-||
|-2--2-x-0-2-(2)-2-2-2-2-0-0-|-5--5----5--5--5--5-----5---------||
|
| Gtr IV
|                                               \2.5/     \1/
| W                            H         +E     Q        +E
|----------------------------|----------------------------------||
|----------------------------|-----------------10-------(10)----||
|----------------------------|-9---------(9)--------------------||
|----------------------------|----------------------------------||
|----------------------------|----------------------------------||
|----------------------------|----------------------------------||


 Chorus
  A                                      E
  Gtr I
    Q     E  S  S  +S   S  E  S  S E      Q   E  S  S  +S   S  E    S   S  S S
|--------------------------------------|---------------------------------------|
|----------------------------------0---|---------------------------------------|
|--14----14-14-14-(14)-14-14-14-14-0---|---------------------------------------|
|--11----11-11-12-(12)-12-12-12-11-0---|-14--14-14-14-(14)-14-14---14--14------|
|---0-----0--0--0--(0)--0--0--0--0-0---|-11--11-11-12-(12)-12-12---12--11--0-0-|
|--------------------------------------|--0---0--0--0--(0)--0--0----0---0--0-0-|
|
| Gtrs II, III
|   Q     E  S  S   Q         S  S S S    Q   E  S  S   E      S S +S   E.
|------------------------------------0-|--0---0--0--0---0------0-0-(0)--0------|
|---2-----2--2--2---2---------2--2-2-0-|--0---0--0--0---0------0-0-(0)--0------|
|---2-----2--2--2---2---------2--2-2-1-|--1---1--1--1---1------1-1-(1)--1------|
|---2-----2--2--2---2---------2--2-2---|--2---2--2--2---2------2-2-(2)--2------|
|---0-----0--0--0---0---------0--0-0---|--2---2--2--2---2------2-2-(2)--2------|
|--------------------------------------|--0---0--0--0---0------0-0-(0)--0------|
|
| Gtr IV
|   \1/
|  +Q     Q         H                     W
|--------------------------------------|---------------------------------------|
|-(10)---------------------------------|---------------------------------------|
|--------------------------------------|---------------------------------------|
|--------------------------------------|---------------------------------------|
|--------------------------------------|---------------------------------------|
|--------------------------------------|---------------------------------------|


  D/A
  Gtr I
                         |-----3------|
   Q   E  S S +S  S E    S     +S     S  S S
|--------------------------------------------|
|--------------------------------------------|
|-11--11-11-9-(9)-9-9---11b12r(11)p===9------|
|--0---0--0-0-(0)-0-0----0--------------11-9-|
|--0---0--0-0-(0)-0-0----0---------------0-0-|
|--------------------------------------------|
|
| Gtrs II, III
|  Q   E  S S +S  E   S  S         E.
|--2---2--2-2-(2)-2---2--2---------2---------|
|--3---3--3-3-(3)-3---3--3---------3---------|
|--2---2--2-2-(2)-2---2--2---------2---------|
|--0---0--0-0-(0)-0---0--0---------0---------|
|--0---0--0-0-(0)-0---0--0---------0---------|
|--------------------------------------------|


  A          Asus4
  S  S  S  S  E  S  S  +S   S  E  S  S  S  S
|---------------------------------------------|
|---------------------------------------------|
|---------14-14----14-(14)-14-14-14-14-14-14--|
|-9s11-11-11-11----12-(12)-12-12-12-11-11-12--|
|-0-----0--0--0--0----------0--0--0--0--0--0--|
|---------------------------------------------|
|
| E.       S  E.    S  +S   S  Q        E
|---------------------------------------------|
|-2--------2--2-----3--(3)--3--3--------------|
|-2--------2--2-----2--(2)--2--2--------------|
|-2--------2--2-----2--(2)--2--2--------0-----|
|-0--------0--0-----0--(0)--0--0--------0-----|
|---------------------------------------------|


  A                                   E
   Q   E  S  S  +S   S  E  S  S E      E.  S  E  S  S  +S   S  E    S   S  S S
|-----------------------------------|------------------------------------------|
|-------------------------------0---|------------------------------------------|
|-14--14-14-14-(14)-14-14-14-14-0---|------------------------------------------|
|-11--11-11-12-(12)-12-12-12-11-0---|-14--14-14-14-14-(14)-14-14---14--14------|
|--0---0--0--0--(0)--0--0--0--0-0---|-11--11-11-11-12-(12)-12-11---11--11--0-0-|
|-----------------------------------|--0---0--0--0--0--(0)--0--0----0---0--0-0-|
|
|  Q   E  S  S   Q         S  S S S    Q      E  S  S   E      S S +S   E.
|---------------------------------0-|--0------0--0--0---0------0-0-(0)--0------|
|--2---2--2--2---2---------2--2-2-0-|--0------0--0--0---0------0-0-(0)--0------|
|--2---2--2--2---2---------2--2-2-1-|--1------1--1--1---1------1-1-(1)--1------|
|--2---2--2--2---2---------2--2-2---|--2------2--2--2---2------2-2-(2)--2------|
|--0---0--0--0---0---------0--0-0---|--2------2--2--2---2------2-2-(2)--2------|
|-----------------------------------|--0------0--0--0---0------0-0-(0)--0------|


                              To Coda
  D/A          A/C#
   E.  S  S  S  E  +S   S  E  S  S S S
|--------------------------------------|
|--------------------------------------|
|-11--11-11-11-------------------------|
|--0---0--0--0-14-(14)-14-14-14-14-----|
|--0---0--0--0--0--(0)--0--0--0--0-0-0-|
|----------------------------------0-0-|
|
|  E.  S  S  S  E  +S   S  E  S  S S S
|--------------------------------------|
|--3-----------------------------------|
|--2-----------------------------------|
|--0---0--0--0--7--(7)--7--7--7--7-----|
|--0---0--0--0--4--(4)--4--4--4--4-0-0-|
|----------------------------------0-0-|


  F#5                D5/A
        PM--|
  Q  E. S S S Q  E    Q   E.  S  E   Q  S S
|------------------|-------------------------||
|----------------0-|-------------------------||
|----------------0-|-11--11--11-11---9--9-9--||
|----------------0-|--0---0---0--0---0--0-0--||
|-4--4--4-4-4-4--0-|--0---0---0--0---0--0-0--||
|-2--2--0-2-0-0----|-------------------------||
|
|       PM--|
| Q  E. S S S Q  E    Q   E.  S  S S Q  S S
|------------------|-------------------------||
|----------------0-|--3---3---3--3-3-3--0-0--||
|----------------0-|--2---2---2--2-2-2--0-0--||
|----------------0-|--0---0---0--0-0-0--0-0--||
|-4--4--4-4-4-4--0-|--0---0---0--0-0-0--0-0--||
|-2--2--0-2-0-0----|-------------------------||


 Verse
  A         Asus4         A        E               Eadd4
   >
   W                                +Q         Q        H
|--------------------------------|--------------------------------------|
|--------------------------------|--------------------------------------|
|--------------------------------|--------------------------------------|
|-11-----------------------------|-(11)---------------------------------|
|--0-----------------------------|--(0)---------------------------------|
|--------------------------------|--------------------------------------|
|
|  Q   E  S  S  +E.  S  S  S S S     E   S  S  E S  S  +E.  S  S  S S S
|--------------------------------|---0---0--0--0----0--(0)--0--0--0-----|
|--------------------------------|--12--12-12-12---12-(12)-12-12-12---0-|
|-14--14-14-14-(14)-14-14-14-0-0-|--13--13-13-13---13-(13)-13-13-13---0-|
|-11--11-11-12-(12)-12-12-11-0-0-|------------------------------------0-|
|--0---0--0--0--(0)--0--0--0-0-0-|--11--11-11-11---12-(12)-12-12-12-0---|
|----------------------------0-0-|---0---0--0--0-0------------------0---|


  D/A                     A              Asus4               A
  Gtrs II, III
   Q   E  S S E S S E E    E  S  S  E  S  S  +S   S  S  S  S  S  S  S
|-----------0-0-0-0-0---|---------------------------------------------|
|-----------------------|---------------------------------------------|
|-11--11-11-9-9-9-9-9-0-|-14-14-14-14-14-14-(14)-14-14-14-14-14-14-14-|
|--0---0--0-0-0-0-0-0-0-|-11-11-11-11-11-12-(12)-12-12-12-12-11--9--9-|
|--0---0--0-0-0-0-0-0-0-|--0--0--0--0--0--0--(0)--0--0--0--0--0--0--0-|
|-----------------------|---------------------------------------------|


  A         Asus4               A        E                   Eadd4
   Q   E  S  S  +S   S  S  S  S  S S S    Q   S  S S  S  +E   S  S  S  S S S
|----------------------------------0-0-|--0---0--0----0--(0)--0--0--0--0-----|
|----------------------------------0-0-|-12--12-12---12-(12)-12-12-12-12-0-0-|
|-14--14-14-14-(14)-14-14-14-14-14-0-0-|-13--13-13---13-(13)-13-13-13-13-0-0-|
|-11--11-11-12-(12)-12-12-12-12-11-0-0-|---------------------------------0-0-|
|--0---0--0--0--(0)--0--0--0--0--0-0-0-|-11--11------12-(12)-12-12-11-11-0-0-|
|----------------------------------0-0-|--0--------0----------0--0--0--0-0-0-|


  D/A
  Gtr I
   W
|----------------------------------------------|
|----------------------------------------------|
|----------------------------------------------|
|----------------------------------------------|
|----------------------------------------------|
|----------------------------------------------|
|
| Gtrs II, III
|                             |----3----|
|  E  S  S  E  S S +S  S S S  S     +S  S  S S
|----------------------------------------------|
|----------------------------------------------|
|-11-11-11-11-11-9-(9)-9---9-11b12r(11)p9------|
|--0--0--0--0--0-0-(0)-0-0----0-----------11-9-|
|--0--0--0--0--0-0-(0)-0-------------------0-0-|
|----------------------------------------------|


                                          D.S. al Coda
  A                 Asus4                A
                                    \0.5
   H                  S   S  E      E.           +S
|---------------------x--------------------------------||
|-------------------------0--0-------------------------||
|-------------------------0--0----<12>---------(<12>)--||
|-------------------------0--0-------------------------||
|-------------------------0--0-------------------------||
|-------------------------0--0-------------------------||
|
|  E  S  S  E  S  S  +S   S  S  S   S     S  S    S
|------------------------------------------------------||
|------------------------------------------------------||
|-14-14-14-14-14-14-(14)-14-14-14--14----14-14---14----||
|-11-11-11-11-11-12-(12)-12-12-12--12----11--9----9----||
|--0--0--0--0--0--0--(0)--0--0--0---0-----0--0----0----||
|------------------------------------------------------||


  &
  Gtr IV
   W                       +Q     Q      Q       E    E
|-----------------------|--------------<12>----------------|
|-----------------------|-----------------------------5/---|
|-<7>-------------------|-(<7>)--<7>------------<7>--------|
|-----------------------|----------------------------------|
|-----------------------|----------------------------------|
|-----------------------|----------------------------------|
|
| Gtrs I, II, III
|         PM--|
|  Q   E. S S S E S S E     Q     E. S   S  S E  S  S S  S
|-----------------------|----------------------------------|
|-----------------------|---3-----3--3---3--3-3--3--3------|
|-----------------------|---2-----2--2---2--2-2--2--2------|
|-----------------------|---0-----0--0---0--0-0--0--0-0--0-|
|--4---4--4-4-4-4-4-4-0-|---0-----0--0---0--0-0--0--0-0--0-|
|--2---2--0-2-0-2-2-2-0-|-----------------------------0--0-|


 Guitar Solo
  A
  Gtr I
   Q    E  S  S  S      S  E      S    S      S     S
|--------------------------------------------------------|
|--------------------------------------------------------|
|-14---14-14-14-14--------14-----14----------------------|
|-11---11-11-11-11h====12-12-----12---11-----------------|
|--0----0--0--0--0---------0------0----0------0-----0----|
|---------------------------------------------0-----0----|
|
| Gtrs II, III
|  Q    E  S  S  Q                S    S      S     S
|---------------------------------------------------0----|
|--2----2--2--2--2----------------2----2------2-----0----|
|--2----2--2--2--2----------------2----2------2-----1----|
|--2----2--2--2--2----------------2----2------2----------|
|--0----0--0--0--0----------------0----0------0----------|
|--------------------------------------------------------|
|
| Gtr IV
|  ~~~~~~~~~~
|  Q.      S  S  S      S  S  S  +S   +T   T  T  T  T  T
|-------------------------17-----------------------------|
|-14------14-15-15b17==15----15-(15)r(15)p14-15h17p15p14-|
|--------------------------------------------------------|
|--------------------------------------------------------|
|--------------------------------------------------------|
|--------------------------------------------------------|


  E
   Q    E.     S      +S   S  E        S   S   E
|-------------------------------------------------------------|
|-------------------------------------------------------------|
|-------------------------------------------------------------|
|-14---14-----14-----(14)-14-14-------14--14------------------|
|-11---11-----12-----(12)-12-12-------11--11------------------|
|--0----0------0------(0)--0--0--------0---0---0--------------|
|
|  Q    E   S  S       E      S   S   +S   E.
|--0----0---0--0-------0------0---0---(0)--0------------------|
|--0----0---0--0-------0------0---0---(0)--0------------------|
|--1----1---1--1-------1------1---1---(1)--1------------------|
|--2----2---2--2-------2------2---2---(2)--2------------------|
|--2----2---2--2-------2------2---2---(2)--2------------------|
|--0----0---0--0-------0------0---0---(0)--0------------------|
|
|  Q   +E   S  S       S   S  S  +S   +S   S   T  T  a  T  T
|-------------------------------------------------------------|
|---------------------14--15----------------------------------|
|-16--(16)S14-16b17==========16r(16)-(16)-14------------------|
|---------------------------------------------16p14-----------|
|---------------------------------------------------16p14p12--|
|-------------------------------------------------------------|


  D/A
                                                 |-----3-----|
   Q     E   S   S +S         S         E        S     +S    S  S S
|-------------------------------------------------------------------|
|-------------------------------------------------------------------|
|-11----11--11---9-(9)--------9---------9-------11b12r(11)p==9------|
|--0-----0---0---0-(0)--------0---------0--------0-------------11-9-|
|--0-----0---0---0-(0)--------0---------0--------0--------------0-0-|
|-------------------------------------------------------------------|
|
|  Q     E   S   S +S         E             S    S         E.
|--2-----2---2---2-(2)--------2-------------2----2---------2--------|
|--3-----3---3---3-(3)--------3-------------3----3---------3--------|
|--2-----2---2---2-(2)--------2-------------2----2---------2--------|
|--0-----0---0---0-(0)--------0-------------0----0---------0--------|
|--0-----0---0---0-(0)--------0-------------0----0---------0--------|
|-------------------------------------------------------------------|
|
|  ~~~   ~~~~~~~~
|                   |-------10--------|
|  E. S  E  +S   S  T T T T T T T T T T T T T T  S         S    E
|-------17-(17)\----2h4h5p4p2---------------------------------------|
|-----0----------0------------5p3p2---2h3h5p3p2---------------------|
|-14--0----------0------------------4------------4p========2p===1---|
|-----0----------0--------------------------------------------------|
|-------------------------------------------------------------------|
|-------------------------------------------------------------------|


  A              Asus4
  S     S  S  S   E  S  S  +S      S    E    S      S    S    S
|-----------------------------------------------------------------|
|-----------------------------------------------------------------|
|------------14--14----14-(14)----14---14---14-----14---14---14---|
|-9s===11-11-11--11----12-(12)----12---12---12-----11---11---12---|
|-0--------0--0---0--0-------------0----0----0------0----0----0---|
|-----------------------------------------------------------------|
|
| E.          S   E.    S  +S      S    Q                E
|-----------------------------------------------------------------|
|-2-----------2---2-----3--(3)-----3----3-------------------------|
|-2-----------2---2-----2--(2)-----2----2-------------------------|
|-2-----------2---2-----2--(2)-----2----2----------------0--------|
|-0-----------0---0-----0--(0)-----0----0----------------0--------|
|-----------------------------------------------------------------|
|
| \3.5/                     \0.5/            \0.5/
|                           |------3------|  |------3------|
| E.         +S   E.    S   E        E    E  E        E    E
|-----------------------------------------------------------------|
|-----------------------------------------------------------------|
|-2----------(2)--4-----4---6s=======4----2--7p=======6p===4------|
|-----------------------------------------------------------------|
|-----------------------------------------------------------------|
|-----------------------------------------------------------------|


  A
    Q   E     S     S  +S   S  E     S     S   E
|----------------------------------------------------|
|----------------------------------------------0-----|
|--14--14----14----14-(14)-14-14----14----14---0-----|
|--11--11----11----12-(12)-12-12----12----11---0-----|
|---0---0-----0-----0--(0)--0--0-----0-----0---0-----|
|----------------------------------------------------|
|
|   Q   E     S     S   Q            S     S   S   S
|--------------------------------------------------0-|
|---2---2-----2-----2---2------------2-----2---2---0-|
|---2---2-----2-----2---2------------2-----2---2---1-|
|---2---2-----2-----2---2------------2-----2---2-----|
|---0---0-----0-----0---0------------0-----0---0-----|
|----------------------------------------------------|
|
|   ~~~~~~~         ~~~~~~~
|   Q   S  S  S  a  S   E.        S  E        +S   S
|--------------------------------19-19b21r===(19)p16-|
|----------------------------------------------------|
|-/14--14h18p14-14h16--16----------------------------|
|----------------------------------------------------|
|----------------------------------------------------|
|----------------------------------------------------|


  E
   Q         E   S    S  +S        S        E                 S        S        S         S
|----------------------------------------------------------------------------------------------|
|----------------------------------------------------------------------------------------------|
|----------------------------------------------------------------------------------------------|
|-14--------14--14---14-(14)------14-------14----------------14-------14-----------------------|
|-11--------11--11---12-(12)------12-------12----------------12-------11--------0---------0----|
|--0---------0---0----0--(0)-------0--------0-----------------0--------0--------0---------0----|
|
|  Q         E   S    S   E                 S        S       +S        E.
|--0---------0---0----0---0-----------------0--------0-------(0)-------0-----------------------|
|--0---------0---0----0---0-----------------0--------0-------(0)-------0-----------------------|
|--1---------1---1----1---1-----------------1--------1-------(1)-------1-----------------------|
|--2---------2---2----2---2-----------------2--------2-------(2)-------2-----------------------|
|--2---------2---2----2---2-----------------2--------2-------(2)-------2-----------------------|
|--0---------0---0----0---0-----------------0--------0-------(0)-------0-----------------------|
|
|  ~~~~~~~   ~~~~~~~~
|                         |-------------12:8---------------|  |----------9:6----------|
|  E.  T  T  E  +S    S   T  T  T  T  T  T  T  T  T  T  T  T  T  T  T  T  T  T  T  T  T  +S
|----------------------------------------------------------------------------------------------|
|-17--17h21p17-(17)\---------------------------------------------------------------------------|
|---------------------------------------------------------------------18h19h21p19p18-----------|
|---------------------7--------------------18h19h21p19p18----18h19h21----------------21-(21)---|
|---------------------------------17h19h21----------------21-----------------------------------|
|------------------------17h19h21--------------------------------------------------------------|


  D/A               A/C#
  Gtrs I, II, III
   E.        S  S S   E           +S        S        E              S     S        S  S
|----------------------------------------------------------------------------------------|
|----------------------------------------------------------------------------------------|
|-11--------11--------7-----------(7)-------7--------7--------------7-----7--------------|
|--0---------0--0-0---4-----------(4)-------4--------4--------------4-----4--------------|
|--0---------0--0-0----------------------------------------------------------------0--0--|
|----------------------------------------------------------------------------------------|
|
| Gtr IV
|               ~~~~~~~~~~
|  |--3---|               |--3--|  |------6-------|        |--3--|        |--3--|
|  E   E  E     E    +S   T  T  T  T  T  T  T  T  T  T  T  T  T  T  T  T  T  T  T  S  S
|---------------------------------14h16h17p16p14-----------------------------------------|
|--------------22---(22)S14h15h17----------------17p15----14h15h17p15p14-------------12\-|
|-21--19-18--------------------------------------------16----------------16p14p13h14-----|
|----------------------------------------------------------------------------------------|
|----------------------------------------------------------------------------------------|
|----------------------------------------------------------------------------------------|


  F#5
              PM-----|
  Q   E.   S  S    S E     S    S    E
|----------------------------------------||
|----------------------------------------||
|----------------------------------------||
|----------------------------------------||
|-4---4----4--4----4-4-----4----4----0---||
|-2---2----0--2----0-2-----2----2----0---||
|
|             \2.5
| Q  +E  S S +E.       +S  S   +T  T S S
|----------------------------------------||
|----------------------------------------||
|-6--(6)-6-4-(4)-------(4)-4b6r(4)p2---2-||
|------------------------------------4---||
|----------------------------------------||
|----------------------------------------||


 Interlude
  A                 Asus4
  Gtrs I, II
   Q            E S  S  +Q.        S S
|--------------------------------------|
|--------------------------------------|
|--------------------------------------|
|-11-----------11---12-(12)--------0-0-|
|--0------------0-0--0--(0)--------0-0-|
|--------------------------------------|
|
| Gtr IV
|  /1\
|       ~~~~~~~~~~~~~~~~~~~~~~~~~~~
|  S   +S  +Q.          +Q   Q
|--------------------------------------|
|--------------------------------------|
|--2---(2)-(2)----------(2)--2(14)-----|
|--------------------------------------|
|--------------------------------------|
|--------------------------------------|


  E             Esus4
   Q       E  S  S  +Q               S      S       E
|-------------------------------------------------------|
|-------------------------------------------------------|
|-------------------------------------------------------|
|-------------------------------------------------------|
|-11------11-14-12-(12)-------------12-----11-----------|
|--0-------0--0--0--(0)--------------0------0-------0---|
|
|                       \0.5/ \0.5/  \0.5/    \0.5/
|  T
|                    |---3----|      |-------3--------|
|  H                +E  E     E      E        E       E
|-------------------------------------------------------|
|-------------------------------------------------------|
|--2(21)------------(2)-2-----2------2--------2---------|
|-----------------------------------------------------0-|
|-----------------------------------------------------0-|
|-------------------------------------------------------|


  D/A                                     A
  Gtrs I, II, III
                       |----3----|
   Q   E  S S +E  S S  S     +S  S  S S   S  E.  E  S S +Q   S S S    S
|---------------------------------------|-------------------------------||
|---------------------------------------|-------------------------------||
|-11--11-11-9-(9)-9-9-11b12r(11)p9------|-------------------------------||
|--0---0--0-0-(0)-0-0--0-----------11-9-|-9h11--11-11-9-(9)--7-7-9b10r9-||
|--0---0--0-0-(0)-------------------0---|-0------0--0-0-(0)--0-0-0------||
|---------------------------------------|-------------------------------||


 Chorus
  A        Asus4       A      E         Esus4       E
  Gtrs I, II
   Q   E S  S  +Q    S  E S    Q    E S  S  +Q    S  S S S
|---------------------------|------------------------------|
|---------------------------|------------------------------|
|---------------------------|------------------------------|
|-11--11---12-(12)--12-11---|------------------------------|
|--0---0-0--0--(0)---0--0-0-|-11---11---12-(12)--12-11-0-0-|
|-------------------------0-|--0----0-0--0--(0)---0--0-0-0-|
|
| Gtr IV
|  W                          +W
|---------------------------|------------------------------|
|---------------------------|------------------------------|
|---------------------------|------------------------------|
|---------------------------|------------------------------|
|--0------------------------|-(0)--------------------------|
|---------------------------|------------------------------|


  D/A                                     A         Asus4               A
                       |----3----|
   Q   E  S S +E  S S  S     +S  S  S S    Q   E  S  S  +S   S  S  S  S  S S S
|---------------------------------------|--------------------------------------|
|---------------------------------------|--------------------------------------|
|-11--11-11-9-(9)-9-9-11b12r(11)p9------|-----14-14-14-(14)-14-14-14-14-14-----|
|--0---0--0-0-(0)-0-0--0-----------11-9-|-11--11-11-12-(12)-12-12-12-12-11-9-9-|
|--0---0--0-0-(0)-0-0---------------0---|--0---0--0--0--(0)--0--0--0--0--0-0-0-|
|---------------------------------------|--------------------------------------|


  A                                   E
  Gtr I
   Q   E  S  S  +S   S  E  S  S E      E.  S  E  S  S  +S   S  E    S   S  S S
|-----------------------------------|------------------------------------------|
|-------------------------------0---|------------------------------------------|
|-14--14-14-14-(14)-14-14-14-14-0---|------------------------------------------|
|-11--11-11-12-(12)-12-12-12-11-0---|-14--14-14-14-14-(14)-14-14---14--14------|
|--0---0--0--0--(0)--0--0--0--0-0---|-11--11-11-11-12-(12)-12-11---11--11--0-0-|
|-----------------------------------|--0---0--0--0--0--(0)--0--0----0---0--0-0-|
|
| Gtrs II, III
|  Q   E  S  S   Q         S  S S S    Q      E  S  S   E      S S +S   E.
|---------------------------------0-|--0------0--0--0---0------0-0-(0)--0------|
|--2---2--2--2---2---------2--2-2-0-|--0------0--0--0---0------0-0-(0)--0------|
|--2---2--2--2---2---------2--2-2-1-|--1------1--1--1---1------1-1-(1)--1------|
|--2---2--2--2---2---------2--2-2---|--2------2--2--2---2------2-2-(2)--2------|
|--0---0--0--0---0---------0--0-0---|--2------2--2--2---2------2-2-(2)--2------|
|-----------------------------------|--0------0--0--0---0------0-0-(0)--0------|


  D/A      A/C#              F#5                     D5/A
  Gtrs I, II, III
  E. S S S E S E S S S S S   Q  E. S S S E S S S S   Q  E. S S S E S S E
|--------------------------|-----------------------|----------------------|
|-3------------------------|-----------------------|-3--3--3-3-3-3-3-3-0--|
|-2------------------------|-----------------------|-2--2--2-2-2-2-2-2-0--|
|-0--0-0-0-7-7-7-7-7-7-----|-----------------------|-0--0--0-0-0-0-0-0-0--|
|-0--0-0-0-4-4-4-4-4-4-0-0-|-4--4--4-4-4-4-4-4-0-0-|-0--0--0-0-0-0-0-0-0--|
|----------------------0-0-|-2--2--0-2-0-0-0-0-0-0-|----------------------|


  A                                   E
  Gtr I
   Q   E  S  S  +S   S  E  S  S E      E.  S  E  S  S  +S   S  E    S   S  S S
|-----------------------------------|------------------------------------------|
|-------------------------------0---|------------------------------------------|
|-14--14-14-14-(14)-14-14-14-14-0---|------------------------------------------|
|-11--11-11-12-(12)-12-12-12-11-0---|-14--14-14-14-14-(14)-14-14---14--14------|
|--0---0--0--0--(0)--0--0--0--0-0---|-11--11-11-11-12-(12)-12-11---11--11--0-0-|
|-----------------------------------|--0---0--0--0--0--(0)--0--0----0---0--0-0-|
|
| Gtrs II, III
|  Q   E  S  S   Q         S  S S S    Q      E  S  S   E      S S +S   E.
|---------------------------------0-|--0------0--0--0---0------0-0-(0)--0------|
|--2---2--2--2---2---------2--2-2-0-|--0------0--0--0---0------0-0-(0)--0------|
|--2---2--2--2---2---------2--2-2-1-|--1------1--1--1---1------1-1-(1)--1------|
|--2---2--2--2---2---------2--2-2---|--2------2--2--2---2------2-2-(2)--2------|
|--0---0--0--0---0---------0--0-0---|--2------2--2--2---2------2-2-(2)--2------|
|-----------------------------------|--0------0--0--0---0------0-0-(0)--0------|


                              To Coda
  D/A          A/C#
   E.  S  S  S  E  +S   S  E  S  S S S
|--------------------------------------|
|--------------------------------------|
|-11--11-11-11-------------------------|
|--0---0--0--0-14-(14)-14-14-14-14-----|
|--0---0--0--0--0--(0)--0--0--0--0-0-0-|
|----------------------------------0-0-|
|
|  E.  S  S  S  E  +S   S  E  S  S S S
|--------------------------------------|
|--3-----------------------------------|
|--2-----------------------------------|
|--0---0--0--0--7--(7)--7--7--7--7-----|
|--0---0--0--0--4--(4)--4--4--4--4-0-0-|
|----------------------------------0-0-|


  F#5                D5/A
        PM--|
  Q  E. S S S Q  E    Q   E.  S  E   Q  S S
|------------------|-------------------------||
|----------------0-|-------------------------||
|----------------0-|-11--11--11-11---9--9-9--||
|----------------0-|--0---0---0--0---0--0-0--||
|-4--4--4-4-4-4--0-|--0---0---0--0---0--0-0--||
|-2--2--0-2-0-0----|-------------------------||
|
|       PM--|
| Q  E. S S S Q  E    Q   E.  S  S S Q  S S
|------------------|-------------------------||
|----------------0-|--3---3---3--3-3-3--0-0--||
|----------------0-|--2---2---2--2-2-2--0-0--||
|----------------0-|--0---0---0--0-0-0--0-0--||
|-4--4--4-4-4-4--0-|--0---0---0--0-0-0--0-0--||
|-2--2--0-2-0-0----|-------------------------||


 Outro
  A                                  E
  Gtr I
   Q.    S  S  a  E.  S  +S   E  S    Q.    S  S  a  E.  S  +S   E S
|----------------------------------|---------------------------------|
|----------------------------------|---------------------------------|
|----------------------------------|---------------------------------|
|-11----11-12-12h14--12-(12)-11-12-|-------------------------------0-|
|--0-----0--0-----0---0--(0)--0--0-|-14----11-12-12h14--12-(12)-11-0-|
|----------------------------------|--0-----0--0-----0---0--(0)--0---|


  D/A     A/C# D/A/C#  A5
               |-3-|
  Q  E. S E. S E E E   W
|--------------------|----------------*|
|-3--3---------3-0---|----------------*|
|-2--2--2-2--2-2-2---|----------------*|
|-0--0--0------0-----|-2--------------*|
|-0--0--0-4--4-0-4-0-|-0--------------*|
|------------------0-|----------------*|
|
| Gtr III
| W                    Q   E  Q.   Q
|--------------------|----------------*|
|--------------------|----------------*|
|--------------------|----------------*|
|--------------------|----11p=9-------*|
|--------------------|-----0-(0)------*|
|--------------------|----------------*|


Duration Legend
---------------
W - whole; H - half; Q - quarter; E - 8th; S - 16th; T - 32nd; X - 64th; a - acciaccatura
+ - note tied to previous; . - note dotted; .. - note double dotted
Uncapitalized letters represent notes that are staccato (1/2 duration)
Irregular groupings are notated above the duration line
Duration letters will always appear directly above the note/fret number it represents the
duration for.  Duration letters with no fret number below them represent rests.  Multi-
bar rests are notated in the form Wxn, where n is the number of bars to rest for.  Low
melody durations appear below the staff

Tablature Legend
----------------
 h   - hammer-on
 p   - pull-off
 b   - bend
 pb  - pre-bend
 r   - bend release (if no number after the r, then release immediately)
 /\  - slide into or out of (from/to "nowhere")
 s   - legato slide
 S   - shift slide
  - natural harmonic
[n]  - artificial harmonic
n(n) - tapped harmonic
 ~   - vibrato
 tr  - trill
 T   - tap
 TP  - trem. picking
 PM  - palm muting
\n/  - tremolo bar dip; n = amount to dip
 \n  - tremolo bar down
 n/  - tremolo bar up
/n\  - tremolo bar inverted dip
 =   - hold bend; also acts as connecting device for hammers/pulls
 <>  - volume swell (louder/softer)
 x   - on rhythm slash represents muted slash
 o   - on rhythm slash represents single note slash

Misc Legend
-----------
 |  - bar
||  - double bar
||o - repeat start
o|| - repeat end
*|  - double bar (ending)
 :  - bar (freetime)
 $  - Segno
 &  - Coda
Tempo markers -  = BPM(8/16=s8/s16), where s8 = swing 8ths, s16 = swing 16ths


***************************************************************************************
* Generated using Power Tab Editor by Brad Larsen - http://powertab.guitarnetwork.org *
***************************************************************************************
comments
print report bad tab
4 comments total. Showing first comments.
0 reply
dbzrage3k wrote on July 7 2005, 12:00 am

ahhh! those last high notes in the chorus are tapped harmonics! I never would've figured that out, thanks man.

0 reply
Logz wrote on August 10 2005, 12:00 am

good, but pretty hard to read

0 reply
MarkTremontifan wrote on April 12 2006, 08:52 pm

This is probably my favorite sounding solo by Mark Tremonti. I like Open Your Eyes too, but this one was jsut so well made.

I want to post or [tab]
guest
You may want to rate the tab now too:
select rating
Please do not post tabs as comments. Select "correction" instead!