Oops, an error
Loading. Please wait.

End Is Here Tab

ver3
ver3

Whole song

More versions @911Tabs.com
5,423 views 1 this week
2 commentsread comments
1 2 3 4 5
excellent!
x 5
add to favorites launch autoscroll
font size
0
reset
Autoscroll
+/-
esc
set tempo
stop
Contributor
WARNING: You are trying to view
                                    content from Ultimate-Guitar.com
                                    in an unauthorized application,
                                    which is prohibited.

                                    Please use an official Ultimate
                                    Guitar Tabs application for iPhone,
                                    iPad or Android to access legitimate
                                    chords, guitar, bass, and drum tabs
                                    from Ultimate-Guitar.com database.

                                    Type "ultimate guitar tabs" in Apple
                                    App Store's or Android Market's
                                    search to find the application.
Band- Alter Bridge
Song- The End Is Here

Gtr I (C G C F A D) - 'Electric'
Gtr II (C G C F A D) - 'Acoustic'
Gtr III (C G C F A D) - 'Distortion'

 Intro
  Q=70
                              (D5)
 4/4
  Gtr I
  Wx3          H    Q  E. S    S S  S S  S S  S  S  S S  S S  S S  S  S
|------------|--------------|-22---20---18---18s20s18---17---17---15s17s=|
|------------|--------------|--------------------------------------------|
|------------|--------------|-19---17---15---15s17s15---14---14---12s14s=|
|------------|------------0-|----0----0----0----------0----0----0--------|
|------------|--------------|--------------------------------------------|
|------------|--------------|--------------------------------------------|


   S S  S S  S S  S  S  S S  S S  S S S S
|-18---17---15---15s17s15---14---14-------|
|-----------------------------------------|
|-15---14---12---12s14s12---11---11-------|
|----0----0----0----------0----0----0-0-0-|
|-----------------------------------------|
|-----------------------------------------|


   S S  S S  S S  S  S  S S  S S  S S  S  S
|-22---20---18---18s20s18---17---17---15s17s=|
|--------------------------------------------|
|-19---17---15---15s17s15---14---14---12s14s=|
|----0----0----0----------0----0----0--------|
|--------------------------------------------|
|--------------------------------------------|


                                              D5        C6/D     Bbmaj7/D
                                              Gtrs I, II
   S S  S S  S S  S  S  S S  S S  S S  S  S    Q  E S S  E.  S S S E
|-18---17---15---15s17s15---14---14---14\---|------------------------|
|-------------------------------------------|------------------------|
|-15---14---12---12s14s12---11---11---11\---|-^7--7-9-9--9--10---7-7-|
|----0----0----0----------0----0----0-----0-|-^0--0-0-0-10--10---8-8-|
|-------------------------------------------|-^0--0-0-0--0---0-0-0-0-|
|-------------------------------------------|-^0--0-0-0--0---0-0-0-0-|


         A/D            Dsus2     D5          C6/D     Bbmaj7/D
  +Q   E S S E. S S S a E   +S  S E +S  S S S  E.  S S S E
|-------------------------|--------------------------------|
|-------------------------|--------------------------------|
|-(7)--7-6-6-6--6---7-7s9-|-(9)-9-7-(7)-7s9-9--9--10---7-7-|
|-(8)--8-7-7-7--7---0---0-|-(0)-0-0-(0)-0-0-0-10--10---8-8-|
|-(0)--0-0-0-0--0-0-0---0-|-(0)-0-0-(0)-0-0-0--0---0-0-0-0-|
|-(0)--0-0-0-0--0-0-0---0-|-(0)-0-0-(0)-0-0-0--0---0-0-0-0-|


                                     Verse
                                      D5
  +Q   E. S T  T S  S  S S  S  S S    Q  E S S  E.  S E E
|----------------------------------||---------------------|
|----------------------------------||---------------------|
|-(7)--7--9-9h10p9-12-10-9---------||----7-9-9--9--10---7-|
|-(8)--8-------------------12-10-8-||-7--0-0-0-10--10---8-|
|-(0)--0---------------------------||----0------0---0---0-|
|-(0)--0---------------------------||----0------0---0-0-0-|


           A            Dsus2     D5          C6/D     Bbmaj7/D
  +Q   E S S E. S S S a E   +S  S E +S  S S S  E.  S E E
|-------------------------|------------------------------|
|-------------------------|------------------------------|
|-(7)--7---6-6--6---0-7s9-|-(9)-9-7-(7)-7---9--9--10---7-|
|-(8)--8---7-7--7---0---0-|-(0)-0-0-(0)-0-----10--10---8-|
|-(0)--0---0-0--0-0-----0-|-(0)-----------0----0-------0-|
|-(0)--0-0--------0-----0-|-(0)-----------0----0-----0-0-|


             A/D            D5         C6/D     Bbmaj7/D
  +Q   E S S E. S S S S S   Q  E a S S  E.  S E E
|-------------------------|-----------------------|
|-------------------------|-----------------------|
|-(7)--7---6-6--6-6-6-6-6-|-7--7-7h9-9--9--10---7-|
|-(8)--8-0---7--7-7-7-7-7-|-0--0---0-0-10--10---8-|
|-(0)--0-----0--0-0-0-0-0-|-0--0---0-0--0---0-0-0-|
|-(0)--0-----0--0-0-0-0-0-|-0--0---0-0--0---0-0-0-|


           A            Dsus2     D5          C6/D       Bbmaj7/D
  +Q   E S S E. S S S a E   +S  S E +S  S S S  E.  S S S E
|-------------------------|--------------------------------|
|-------------------------|--------------------------------|
|-(7)--7---6-6--6---0-7h9-|-(9)-9-7-(7)-7---9--9--10-----7-|
|-(8)--8---7-7--7---0---0-|-(0)---0-(0)-0-----10--10---8-8-|
|-(0)--0---0-0--0-0-----0-|-(0)-----------0----0---0-0-0-0-|
|-(0)--0-0--------0-----0-|-(0)-----------0----0---0-0-0-0-|


                                  Chorus
                                $
                                $$
              C/D                  Dadd9    A/C#
  +Q   E  S S S S S S +S  S E      Q  E S S Q  +S  S S S
|-------------------------------||-0--------0--(0)-0-----|
|-------------6-5---5-(5)-6-----||-7--------5--(5)-5-----|
|-(7)--7------5-5---5-(5)-5-----||-7--------6--(6)-6-----|
|-(8)--8------------------------||-0--------7--(7)-7-----|
|-(0)--0--------------------0---||-0--0-0-0-4--(4)-4-----|
|-(0)--0--0-0-----0---------0---||-0--0-0-0----------0-0-|
|
| Gtr III
|  Q   E.   S S S S S +S  S S S    Q  E S S Q  +S  S S S
|-------------------------------||-0--------0--(0)-0-----|
|-------------6-5---5-(5)-6-----||-7--------5--(5)-5-----|
|-------------5-5---5-(5)-5-----||-7--------6--(6)-6-----|
|-------------------------------||-0--------7--(7)-7-----|
|-------------------------------||-0--0-0-0-4--(4)-4-----|
|-----------0-----0---------0-0-||-0--0-0-0----------0-0-|


  A5          B#maj7+1Bb5      D5G5Gb5 F5       C5      G6/B
  Gtrs II, III
   E.  S  S S  E  +S   E  S  S S S S   Q  E S S E.S S S E
|------------------------------------|------------------0-|
|-10--10-10---10-(10)----------------|------------------3-|
|--9---9--9----9--(9)-10-10-10-------|----5-5-0-5s7s5---4-|
|--7---7--7s8--8--(8)--8--8--8-0-5-4-|-3--3-3-0---------5-|
|--7---7--7s8--8--(8)--8--8--8-0-5-4-|-3--3-3---3s5s3p0-2-|
|--7---7--7s8--8--(8)--8--8--8-0-5-4-|-3--3-3-------------|


                  D5Eb5D5Eb5  Dadd9      A/C#
  +S  S S S S E S S E. S E.   Q  S S S S E S S S S S S
|-(0)-0-0-0-0-0-0-----------|-0--0-0-0-0-0-0-0-0-------|
|-(3)-3-3-3-3-3-3-----------|-7--7-7-7-7-5-5-5-5-------|
|-(4)-4-4-4-4-4-4-----------|-7--7-7-7-7-6-6-6-6-------|
|-(5)-5-5-5-5-5-5-0-1/-0-1/-|-0--0-0-0-0-7-7-7-7-6-4-0-|
|-(2)-2-2-2-2-2-2-0-1/-0-1/-|-0--0-0-0-0-4-4-4-4-4-4-0-|
|-----------------0-1/-0-1/-|-0--0-0-0-0---------------|


                            To Dbl. Coda
  A5            B#maj7+1Bb5         G5Gb5 F5       C5        G6/B
   E  S  S  S S  E  +S   E  S  S  S S S   Q  S S S S E.S S S E
|---------------------------------------|--------------------0-|
|-10-10-10-10---10-(10)-----------------|--------------------3-|
|--9--9--9--9----9--(9)-10-10-10-10-----|------5-5-0-5s7s5---4-|
|--7--7--7--7-8--8--(8)--8--8--8--8-5-4-|-3----3-3-0---------5-|
|--7--7--7--7-8--8--(8)--8--8--8--8-5-4-|-3--3-3-3---3s5s3p0-2-|
|--7--7--7--7-8--8--(8)--8--8--8--8-5-4-|-3--3-3-3-------------|


               Interlude
To Coda
                D5        C6/D     Bbmaj7/D
                Gtr I
  +W             Q  E S S  E.  S S S E
|-(0)--------||------------------------|
|-(3)--------||------------------------|
|-(4)--------||-^7--7-9-9--9--10---7-7-|
|-(5)--------||-^0--0-0-0-10--10---8-8-|
|-(2)--------||-^0--0-0-0--0---0-0-0-0-|
|------------||-^0--0-0-0--0---0-0-0-0-|
|
| Gtr III
|  W             W
|------------||------------------------|
|------------||------------------------|
|------------||------------------------|
|------------||------------------------|
|------------||--0---------------------|
|------------||--0---------------------|


         A/D            Dsus2     D5          C6/D     Bbmaj7/D
   Q   E S S E. S S S a E   +S  S E +S  S S S  E.  S S S E
|-------------------------|--------------------------------|
|-------------------------|--------------------------------|
|--7---7-6-6-6--6---7-7s9-|-(9)-9-7-(7)-7s9-9--9--10---7-7-|
|--8---8-7-7-7--7---0---0-|-(0)-0-0-(0)-0-0-0-10--10---8-8-|
|--0---0-0-0-0--0-0-0---0-|-(0)-0-0-(0)-0-0-0--0---0-0-0-0-|
|--0---0-0-0-0--0-0-0---0-|-(0)-0-0-(0)-0-0-0--0---0-0-0-0-|
|
| +W                        +W
|-------------------------|--------------------------------|
|-------------------------|--------------------------------|
|-------------------------|--------------------------------|
|-------------------------|--------------------------------|
|-(0)---------------------|-(0)----------------------------|
|-(0)---------------------|-(0)----------------------------|


             A
  +Q   E S S S S S S S S S T T
|------------------------------||
|------------------------------||
|-(7)--7-0-0-----6-7-9-9-------||
|-(8)--8-------7-----------7-5-||
|-(0)--0-----5-----------------||
|-(0)--0-----------------0-----||
|
|  >
| +W
|------------------------------||
|------------------------------||
|------------------------------||
|------------------------------||
|-(0)--------------------------||
|-(0)--------------------------||


 Verse
  D5            C6/D     Bbmaj7/D       A          Dsus2
   E  S S E S S  E.  S E E   +Q   E S S E. S S S a E
|--------------------------|---------------------------|
|--------------------------|---------------------------|
|----------------9--10---7-|-(7)--7---6-6--6-6-6-7h9---|
|--7----3-0-0-0-10--10---8-|-(8)--8---7-7--7-7-7---0---|
|-----------0-0--0-----0---|------------0--0-0-0---0---|
|-----0-----0-0--0-----0---|-----------------------0---|
|
| +W                         +Q   Q     H
|--------------------------|---------------------------|
|--------------------------|---------------------------|
|--------------------------|---------------------------|
|--------------------------|---------------------------|
|-(0)----------------------|-(0)-----------------------|
|-(0)----------------------|-(0)-----------------------|


      D5          C6/D     Bbmaj7/D     A/D
  S S E +S  S S S  E.  S E E   Q  E S S E. S S S S S
|----------------------------|-----------------------|
|----------------------------|-----------------------|
|-9-9-7-(7)-7---9--9--10---7-|-7--7---6-6--6-6-6-6-6-|
|-0-0-0-(0)-0-----10--10---8-|-8--8-0---7--7-7-7-7-7-|
|-0-----------0----0-------0-|-0--0-----0--0-0-0-0-0-|
|-0-----------0----0-----0-0-|-0--0-----0--0-0-0-0-0-|


  D5         C6/D     Bbmaj7/D
  Q  E a S S  E.  S E E   +Q   E. S T  T S  S  S S  S  S S
|-----------------------|----------------------------------|
|-----------------------|----------------------------------|
|-7--7-7h9-9--9--10---7-|-(7)--7--9-9h10p9-12-10-9---------|
|-0--0---0-0-10--10---8-|-(8)--8-------------------12-10-8-|
|-0--0---0-0--0---0-0-0-|-(0)--0---------------------------|
|-0--0---0-0--0---0-0-0-|-(0)--0---------------------------|


                                       D.S. al Coda
  D5       C6/D     Bbmaj7/D        C/D
  ~~
  Q.   S S  E.  S E E   +Q   E  S S S E S  +S  S E
|---------------------|------------------------------||
|---------------------|-------------6-5-5--(5)-6-----||
|------9-9--9--10---7-|-(7)--7------5-5-5--(5)-5-----||
|-7----0-0-10--10---8-|-(8)--8-----------------------||
|------0-0--0---0-----|------0-------------------0---||
|------0-0--0---0-0---|------0--0-0--------------0---||
|
| Gtr III
| W                      Q   E.   S S E S   E.     S
|---------------------|------------------------------||
|---------------------|-------------6-5-5------------||
|---------------------|-------------5-5-5------------||
|---------------------|------------------------------||
|---------------------|-----------0----------------0-||
|---------------------|-----------0-------/19\-----0-||


  &
  (D5)
 4/4
  Gtr I
   S S  S S  S S  S  S  S S  S S  S S  S  S
|-22---20---18---18s20s18---17---17---15s17s|
|-------------------------------------------|
|-19---17---15---15s17s15---14---14---12s14s|
|----0----0----0----------0----0----0-------|
|-------------------------------------------|
|-------------------------------------------|
|
|  W
|-------------------------------------------|
|-------------------------------------------|
|-------------------------------------------|
|-------------------------------------------|
|--0----------------------------------------|
|--0----------------------------------------|


   S  S  S S  S S  S  S  S S  S S  S S S S
|-18----17---15---15-17-15---14---14--------|
|-------------------------------------------|
|-15----14---12---12-14-12---11---11--------|
|-----0----0----0----------0----0----0-0-0--|
|-------------------------------------------|
|-------------------------------------------|
|
| +W
|-------------------------------------------|
|-------------------------------------------|
|-------------------------------------------|
|-------------------------------------------|
|-(0)---------------------------------------|
|-(0)---------------------------------------|


   S  S  S S  S S  S  S  S S  S S  S S  S  S
|-22----20---18---18s20s18---17---17---15s17s|
|--------------------------------------------|
|-19----17---15---15s17s15---14---14---12s14s|
|-----0----0----0----------0----0----0-------|
|--------------------------------------------|
|--------------------------------------------|
|
|  >
| +W
|--------------------------------------------|
|--------------------------------------------|
|--------------------------------------------|
|--------------------------------------------|
|-(0)----------------------------------------|
|-(0)----------------------------------------|


   S  S  S S  S S  S  S  S S  S S  S S S S
|-18----17---15---15s17s15---14---14-------|
|------------------------------------------|
|-15----14---12---12s14s12---11---11-------|
|-----0----0----0----------0----0----0-0-0-|
|------------------------------------------|
|------------------------------------------|
|
| +W
|------------------------------------------|
|------------------------------------------|
|------------------------------------------|
|------------------------------------------|
|-(0)--------------------------------------|
|-(0)--------------------------------------|


   S S  S S  S S  S  S  S S  S S  S S  S  S
|-------------------------------------------|
|-------------------------------------------|
|-19---17---15---15s17s15---14---14---12s14s|
|-------------------------------------------|
|-17---15---13---13s15s13---12---12---10s12s|
|----0----0----0----------0----0----0-------|


   S S  S S  S S  S  S  S S  S S  S S S S
|-----------------------------------------|
|-----------------------------------------|
|-15---14---12---12s14s12---11---11-------|
|-----------------------------------------|
|-13---12---10---10s12s10----9----9-------|
|----0----0----0----------0----0----0-0-0-|


   S S  S S  S S  S  S  S S  S S  S S  S  S
|-------------------------------------------|
|-------------------------------------------|
|-19---17---15---15s17s15---14---14---12s14s|
|-------------------------------------------|
|-17---15---13---13s15s13---12---12---10s12s|
|----0----0----0----------0----0----0-------|


   S S  S S  S S  S  S  S S  S S  S S S S
|-----------------------------------------||
|-----------------------------------------||
|-15---14---12---12s14s12---11---11-------||
|-----------------------------------------||
|-13---12---10---10s12s10----9----9-------||
|----0----0----0----------0----0----0-0-0-||


 Bridge
  (D5)
  Gtrs II, III
            PM|    PM|          PM|    PM|    PM|
   S T T  S T T  S T T  S  S  S T T  S T T  S T T  S  S
|-------------------------------------------------------|
|-------------------------------------------------------|
|-19-----17-----15-----15-17-15-----14-----14-----12-14-|
|-------------------------------------------------------|
|-17-----15-----13-----13-15-13-----12-----12-----10-12-|
|----0-0----0-0----0-0----------0-0----0-0----0-0-------|


     PM|    PM|    PM|          PM|    PM| ~~~~~
   S T T  S T T  S T T  S  S  S T T  S T T E. S
|-------------------------------------------------|
|-------------------------------------------------|
|-15-----14-----12-----12-14-12-----11-----7------|
|-------------------------------------------------|
|-13-----12-----10-----10-12-10------9-----5------|
|----0-0----0-0----0-0----------0-0----0-0----0---|


     PM|    PM|    PM|          PM|    PM|    PM|
   S T T  S T T  S T T  S  S  S T T  S T T  S T T  S  S
|-------------------------------------------------------|
|-------------------------------------------------------|
|-19-----17-----15-----15-17-15-----14-----14-----12-14-|
|-------------------------------------------------------|
|-17-----15-----13-----13-15-13-----12-----12-----10-12-|
|----0-0----0-0----0-0----------0-0----0-0----0-0-------|


     PM|    PM|    PM|          PM|    PM|  ~~~~~~
   S T T  S T T  S T T  S  S  S T T  S T T  E.  S
|---------------------------------------------------|
|---------------------------------------------------|
|-15-----14-----12-----12-14-12-----11-----19--17---|
|---------------------------------------------------|
|-13-----12-----10-----10-12-10------9-----17-------|
|----0-0----0-0----0-0----------0-0----0-0----------|


  Gtr II
            PM|    PM|          PM|    PM|    PM|
   S T T  S T T  S T T  S  S  S T T  S T T  S T T  S  S
|-------------------------------------------------------|
|-------------------------------------------------------|
|-19-----17-----15-----15-17-15-----14-----14-----12-14-|
|-------------------------------------------------------|
|-17-----15-----13-----13-15-13-----12-----12-----10-12-|
|----0-0----0-0----0-0----------0-0----0-0----0-0-------|
|
| Gtr III
|  E      E      E      S  S  E      E      E      S  S
|-------------------------------------------------------|
|-------------------------------------------------------|
|-19-----17-----15-----15s17-15-----14-----14-----12s14-|
|-------------------------------------------------------|
|-------------------------------------------------------|
|-------------------------------------------------------|


     PM|    PM|    PM|          PM|
   S T T  S T T  S T T  S  S  S T T  S S  S  S S S
|---------------------------------------------------|
|---------------------------------------------------|
|-15-----14-----12-----12-14-12-----11---11---------|
|---------------------------------------------------|
|-13-----12-----10-----10-12-10------9----9--0-0-0--|
|----0-0----0-0----0-0----------0-0----0-----0-0-0--|
|
|                                         ~~~~~~~~~
|  E      E      E      S  S  E      E    E.     S
|---------------------------------------------------|
|---------------------------------------------------|
|-15-----14-----12-----12s14-12-----11---11---------|
|---------------------------------------------------|
|------------------------------------------------0--|
|------------------------------------------------0--|


                                                  D.S.S. al Dbl. Coda
   S S S  S S S  S S S  S S S  S S  S S    S S S  S S S  E  +Q   E E
|---------------------------------------|-----------------------------||
|---------------------------------------|-----------------------------||
|-19-----15-----17-----14-----15---12---|-15-----12-----19-(19)-------||
|----0-0----0-0----0-0----0-0----0----0-|----0-0----0-0----------0-0--||
|-17-0-0-13-0-0-15-0-0-12-0-0-13-0-10-0-|-13-0-0-10-0-0-17-(17)--0-0--||
|----0-0----0-0----0-0----0-0----0----0-|----0-0----0-0----------0-0--||
|
|                                                        ~~~~~~~
|  S S S  S S S  S S S  S S S  S S  S S    S S S  S S S  E  +Q   Q
|---------------------------------------|-----------------------------||
|---------------------------------------|-----------------------------||
|-19-----15-----17-----14-----15---12---|-15-----12-----19-(19)--x----||
|----0-0----0-0----0-0----0-0----0----0-|----0-0----0-0---------------||
|-17-0-0-13-0-0-15-0-0-12-0-0-13-0-10-0-|-13-0-0-10-0-0---------------||
|----0-0----0-0----0-0----0-0----0----0-|----0-0----0-0---------------||


  &&
  F5       C5      G6/B                D5Eb5D5Eb5  D5Eb5D5Eb5
                                                  2/4
  Gtrs II, III
  Q  E S S E.S S S E   +S  S S S E S S S E. S E.   S E. S E.
|------------------0-|-(0)-0-0-0-0-0-0-----------|-----------||
|------------------3-|-(3)-3-3-3-3-3-3-----------|-----------||
|----5-5-0-5s7s5---5-|-(5)-5-5-5-5-5-5-----------|-----------||
|-3--3-3-0---------4-|-(4)-4-4-4-4-4-4-0-1--0-1--|-0-1--0-1--||
|-3--3-3---3s5s3p0-2-|-(2)-2-2-2-2-2-2-0-1--0-1--|-0-1--0-1--||
|-3--3-3-------------|-----------------0-1--0-1--|-0-1--0-1--||


 Outro
  D5      EbF5  D5      EbF5  D5      EbF5  D5
 3/8                                       5/8
      PM|           PM|           PM|
  S S S S S S   S S S S S S   S S S S S S   S S S S  S S S S S S
|-------------|-------------|-------------|----------------------|
|-------------|-------------|-------------|----------------------|
|-------------|-------------|-------------|----------------------|
|-0-0-0-0-1s3-|-0-0-0-0-1s3-|-0-0-0-0-1s3-|-0-0------------------|
|-0-0-0-0-1s3-|-0-0-0-0-1s3-|-0-0-0-0-1s3-|-0-0---6-10---5h6p5s3-|
|-0-0-0-0-1s3-|-0-0-0-0-1s3-|-0-0-0-0-1s3-|-0-0-0------0---------|


          EbF5  D5      EbF5  D5      EbF5  D5
 3/8                                       5/8
      PM|           PM|           PM|
  S S S S S S   S S S S S S   S S S S S S   S S S S  S S Q
|-------------|-------------|-------------|--------------------|
|-------------|-------------|-------------|--------------------|
|-------------|-------------|-------------|--------------------|
|-0-0-0-0-1s3-|-0-0-0-0-1s3-|-0-0-0-0-1s3-|-0-0----------------|
|-0-0-0-0-1s3-|-0-0-0-0-1s3-|-0-0-0-0-1s3-|-0-0---6-10-0-5tr6--|
|-0-0-0-0-1s3-|-0-0-0-0-1s3-|-0-0-0-0-1s3-|-0-0-0--------------|


 4/4
  Gtr II
            PM|    PM|          PM|    PM|    PM|
   S T T  S T T  S T T  S  S  S T T  S T T  S T T  S  S
|-------------------------------------------------------|
|-------------------------------------------------------|
|-19-----17-----15-----15-17-15-----14-----14-----12-14-|
|-------------------------------------------------------|
|-17-----15-----13-----13-15-13-----12-----12-----10-12-|
|----0-0----0-0----0-0----------0-0----0-0----0-0-------|
|
| Gtr III
|           PM|    PM|          PM|    PM|    PM|
|  S T T  S T T  S T T  S  S  S T T  S T T  S T T  S  S
|-------------------------------------------------------|
|-------------------------------------------------------|
|-19-----17-----15-----15-17-15-----14-----14-----12-14-|
|-------------------------------------------------------|
|-17-----15-----13-----13-15-13-----12-----12-----10-12-|
|----0-0----0-0----0-0----------0-0----0-0----0-0-------|


     PM|    PM|    PM|          PM|
   S T T  S T T  S T T  S  S  S T T  S S  S  S S S
|----------------------------------------------------|
|----------------------------------------------------|
|-15-----14-----12-----12-14-12-----11---11----------|
|----------------------------------------------------|
|-13-----12-----10-----10-12-10------9----9--0-0-0---|
|----0-0----0-0----0-0----------0-0----0-----0-0-0---|
|
|    PM|    PM|    PM|          PM|       ~~~~~~~~~
|  S T T  S T T  S T T  S  S  S T T  S S  E.     S
|----------------------------------------------------|
|----------------------------------------------------|
|-15-----14-----12-----12-14-12-----11---<7>---------|
|----------------------------------------------------|
|-13-----12-----10-----10-12-10------9---------------|
|----0-0----0-0----0-0----------0-0----0---------0---|


            PM|    PM|          PM|    PM|    PM|
   S T T  S T T  S T T  S  S  S T T  S T T  S T T  S  S
|-------------------------------------------------------|
|-------------------------------------------------------|
|-19-----17-----15-----15-17-15-----14-----14-----12-14-|
|-------------------------------------------------------|
|-17-----15-----13-----13-15-13-----12-----12-----10-12-|
|----0-0----0-0----0-0----------0-0----0-0----0-0-------|
|
|           PM|    PM|          PM|    PM|    PM|
|  S T T  S T T  S T T  S  S  S T T  S T T  S T T  S  S
|-------------------------------------------------------|
|-------------------------------------------------------|
|-19-----17-----15-----15-17-15-----14-----14-----12-14-|
|-------------------------------------------------------|
|-17-----15-----13-----13-15-13-----12-----12-----10-12-|
|----0-0----0-0----0-0----------0-0----0-0----0-0-------|


     PM|    PM|    PM|          PM|
   S T T  S T T  S T T  S  S  S T T  S S  S S S S
|--------------------------------------------------|
|--------------------------------------------------|
|-15-----14-----12-----12-14-12-----11---11--------|
|--------------------------------------------------|
|-13-----12-----10-----10-12-10------9----9-0-0-0--|
|----0-0----0-0----0-0----------0-0----0----0-0-0--|
|
|    PM|    PM|    PM|          PM|
|  S T T  S T T  S T T  S  S  S T T  S S  E   S S
|--------------------------------------------------|
|--------------------------------------------------|
|-15-----14-----12-----12-14-12-----11---11--------|
|--------------------------------------------------|
|-13-----12-----10-----10-12-10------9----9---0-0--|
|----0-0----0-0----0-0----------0-0----0------0-0--|


                                                        D
     PM|    PM|    PM|    PM|    PM   PM     PM|    PM|
   S S S  S S S  S S S  S S S  S S  S S    S S S  S S S E +H
|---------------------------------------|------------------------*|
|---------------------------------------|---------------7-(7)----*|
|-19-----15-----17-----14-----15---12---|-15-----12-----7-(7)----*|
|----0-0----0-0----0-0----0-0----0----0-|----0-0----0-0-0-(0)----*|
|-17-0-0-13-0-0-15-0-0-12-0-0-13-0-10-0-|-13-0-0-10-0-0-0-(0)----*|
|----0-0----0-0----0-0----0-0----0----0-|----0-0----0-0-0-(0)----*|


Duration Legend
---------------
W - whole; H - half; Q - quarter; E - 8th; S - 16th; T - 32nd; X - 64th; a - acciaccatura
+ - note tied to previous; . - note dotted; .. - note double dotted
Uncapitalized letters represent notes that are staccato (1/2 duration)
Irregular groupings are notated above the duration line
Duration letters will always appear directly above the note/fret number it represents the
duration for.  Duration letters with no fret number below them represent rests.  Multi-
bar rests are notated in the form Wxn, where n is the number of bars to rest for.  Low
melody durations appear below the staff

Tablature Legend
----------------
 h   - hammer-on
 p   - pull-off
 b   - bend
 pb  - pre-bend
 r   - bend release (if no number after the r, then release immediately)
 /\  - slide into or out of (from/to "nowhere")
 s   - legato slide
 S   - shift slide
  - natural harmonic
[n]  - artificial harmonic
n(n) - tapped harmonic
 ~   - vibrato
 tr  - trill
 T   - tap
 TP  - trem. picking
 PM  - palm muting
\n/  - tremolo bar dip; n = amount to dip
 \n  - tremolo bar down
 n/  - tremolo bar up
/n\  - tremolo bar inverted dip
 =   - hold bend; also acts as connecting device for hammers/pulls
 <>  - volume swell (louder/softer)
 x   - on rhythm slash represents muted slash
 o   - on rhythm slash represents single note slash

Misc Legend
-----------
 |  - bar
||  - double bar
||o - repeat start
o|| - repeat end
*|  - double bar (ending)
 :  - bar (freetime)
 $  - Segno
 &  - Coda
Tempo markers -  = BPM(8/16=s8/s16), where s8 = swing 8ths, s16 = swing 16ths


***************************************************************************************
* Generated using Power Tab Editor by Brad Larsen - http://powertab.guitarnetwork.org *
***************************************************************************************
comments
print report bad tab
2 comments total.
0 reply
G-guitarist wrote on January 5 2007, 10:42 pm

It seems really well put together... sounds nice to... even though I play it a lil different but it still seems really good
5 star

0 reply
harris L wrote on November 10 2008, 12:47 pm

it cool dud!!! gud job man

I want to post or [tab]
guest
You may want to rate the tab now too:
select rating
Please do not post tabs as comments. Select "correction" instead!