Oops, an error
Loading. Please wait.

Find The Real Tab

ver1
ver1

Intro

Solo

Whole song

More versions @911Tabs.com
7,076 views 6 this week
1 commentread comment
1 2 3 4 5
worth learning
x 7
Autoscroll
+/-
esc
set tempo
stop
Contributor
WARNING: You are trying to view
                                    content from Ultimate-Guitar.com
                                    in an unauthorized application,
                                    which is prohibited.

                                    Please use an official Ultimate
                                    Guitar Tabs application for iPhone,
                                    iPad or Android to access legitimate
                                    chords, guitar, bass, and drum tabs
                                    from Ultimate-Guitar.com database.

                                    Type "ultimate guitar tabs" in Apple
                                    App Store's or Android Market's
                                    search to find the application.
-----------------------------------------------------------------------------
                             FIND THE REAL - Alter Bridge
Tabbed by:reuben   
Email:rubes_intheleast88@hotmail.com

Please email me if you have any questions. Enjoy!
Tuning: drop Db, C#

Intro

gtr1&2                      PM....|                         PH pitch c bend
eb|---------------------------------------------------------------| to db
bb|---------------------------------------------------------------|
gb|---------------------------------------------------------------|
Db|\----------------------------------------------------------4b5b4|
Ab|\----------5-4-3-0---------------3---------------3---0-3-5------|
Db|\--0-----0---------6~~~~-6-5-3-5---3-----3-4-3-x----------------|


gtr1&2                      PM......|      PM.....|     PM...|PH
eb|---------------------------------------------------------------|
bb|---------------------------------------------------------------|
gb|---------------------------------------------------------------|
Db|~~~------------------------------------------------------------|
Ab|-----------5-4-3-0---------------3---------------2-------------|
Db|---0-----0---------6~~~~-6-5-3-5---3~~---3-3-4-5-2---0-2-3-1~~~|


verse1

gtr1         PM......|     PM........|     PM......|   PM....|
eb|---------------------------------------------------------------|
bb|---------------------------------------------------------------|
gb|---------------------------------------------------------------|
Db|-----------------------------------------------------------4~~3|
Ab|-----------5-4-3-0---------------3---------------3---0-3-5-----|
Db|---0-----0---------6~~---6-5-3-5---3~~~--3-5-3-5---------------|

 
gtr1        PM.......|     PM........|      PM.....|  PM..|
eb|---------------------------------------------------------------|
bb|---------------------------------------------------------------|
gb|---------------------------------------------------------------|
Db|b4-------------------------------------------------------------|
Ab|-----------5-4-3-0---------------3---------------3---0-3-5-5b6b5
Db|---0-----0---------6-----6-5-3-5---3-----3-4-3-5---------------|

    
gtr1                        PM.......|     PM......|          PH pitch c bend
eb|---------------------------------------------------------------|to db
bb|---------------------------------------------------------------|
gb|---------------------------------------------------------------|
Db|~~~--------------------------------------------------------4b5b|
Ab|-----------5-4-3-0---------------3---------------3---0-3-5-----|
Db|---0---0-----------6~~~~-6-5-3-5---3-----3-4-3-5---------------|

    
gtr1                        PM.......|                       PH
eb|---------------------------------------------------------------|
bb|---------------------------------------------------------------|
gb|---------------------------------------------------------------|
Db|4~~--------------------------------------------------------4~~\|
Ab|-----------5-4-3-0---------------3-3-------------3---0-3-5-----|
Db|---0-----0---------6-----6-5-3-5---3-----3-4-3-5---------------|


Chorus

gtr1&2
eb|---------------------------------------------------------------|
bb|---------------------------------------------------------------|
gb|---3---------------5---------------5---------------7-----------|
Db|\\-3---------------3---------------5---------------5-----------|
Ab|---1-------------2-3---------------3-----------3-4-5-----------|
Db|-----------------2-3---------------------------3-4-5-----------|
  
  
gtr1
eb|---------------------------------------------------------------|
bb|---------------------------------------------------------------|
gb|---7-----------------------------------------------------------|
Db|---0-------------------7-6---5---3-0---------------7-6---5-----|
Ab|---0-------------------7-6---5---3-0---------------7-6---5-----|
Db|---0-------------------7-6---5---3-0---------------7-6---5-----|
gtr2                   wah....................|
eb|-----------------------------------------------------------------|
bb|-----------------------10----------------------------------------|
gb|---7-------------------12b14b12b14--12p10--10\\------10---12-10\-|
Db|---7-------------------------------------12--------10--12--------|
Ab|---5--------------------------------------------/12--------------|
Db|---0------------------------------------------0------------------|
    

gtr1&2
eb|---------------------------------------------------------------|
bb|---------------------------------------------------------------|
gb|---3---------------5---------------5/7-7-7-7/9-9-7-7-7-7-------|
Db|-0-3---------------3---------------x---x-x-x---x-x-5-0-5-------|
Ab|-0-1-----------1-2-3---------------3/5-5-5-5/7-7-5-5-0-5-------|
Db|-0-------------1-2-3-------------------------------5-0-5-------|


gtr1
eb|---------------------------------------------------------------|
bb|---------------------------------------------------------------|
gb|---7-----------------------------------------------------------|
Db|---0-------------------7-6---5---3-0---------------------------|
Ab|---0-------------------7-6---5---3-0---------------------------|
Db|---0-------------------7-6---5---3-0---------------7-6---5-----|
gtr2             (the timing here isnt perfect)
eb|-------------------------------------------------------------------------|
bb|-----------------------10------------------------------13--------18-20b22|
gb|---7-------------------12b14b12b14b12p10--10---12-12/14--14-17-19---17b19|
Db|---7------------------------------------12-------------------------------|
Ab|---5---------------------------------------------------------------------|
Db|---0---------------------------------------------------------------------|

preverse
gtr1&2                                                         PH
eb|---------------------------------------------------------------|
bb|---------------------------------------------------------------|
gb|---------------------------------------------------------------|
Db|-----------------------------------------------------------4b5b4
Ab|-----------5-4-3-0---------------3---------------3---0-3-5-----|
Db|---0-----0---------6~~---6-5-3-5---3-----3-5-3-5---------------|


gtr1&2                                                        PH
eb|---------------------------------------------------------------|
bb|---------------------------------------------------------------|
gb|---------------------------------------------------------------|
Db|---------------------------------------------------------------|
Ab|-----------5-4-3-0-------0-------3---------------3---0-3-5-5b6~|
Db|---0-----0---------6~~~----5-3-5---3-----3-4-3-5---------------|


verse2

gtr1        PM.......|      PM.....|        PM.....|    PM...|
eb|---------------------------------------------------------------|
bb|---------------------------------------------------------------|
gb|---------------------------------------------------------------|
Db|-----------------------------------------------------------4b5b4
Ab|~~---------5-4-3-0---------------3---------------3---0-3-5-----|
Db|---0-----0---------6-----6-5-3-5---3-----3-5-3-5---------------|


gtr1         PM......|      PM.......|                         
eb|---------------------------------------------------------------|
bb|---------------------------------------------------------------|
gb|---------------------------------------------------------------|
Db|4~~------------------------------------------------------------|
Ab|---------0-5-4-3-0---------------3---------------3---0-3-5-5b6b5
Db|---0-----0---------6-----6-5-3-5---3-----3-4-3-5---------------|

gtr1
eb|---------------------------------------------------------------|
bb|---------------------------------------------------------------|
gb|---------------------------------------------------------------|
Db|5~~--------------------------------------------------------4b5b4
Ab|-----------5-4-3-0-------0-------3---------------3---0-3-5-----|
Db|---0---0-----------6-------5-3-5---3-----3-5-3-5---------------|


gtr1                        PM.......|
eb|---------------------------------------------------------------|
bb|---------------------------------------------------------------|
gb|---------------------------------------------------------------|
Db|---------------------------------------------------------------|
Ab|-----------5-4-3-0---------------3---------------3---0-3-5-5b6b|
Db|---0-----0---------6-----6-5-3-5---3-----3-4-3-5---------------|

chorus

gtr1&2
eb|---------------------------------------------------------------|
bb|-------------------6---------------5---------------------------|
gb|---3---------------5---------------5---------------7-----------|
Db|5\-3---------------3---------------5---------------5-----------|
Ab|---1-----------1-2-3---------------3-----------3-4-5-----------|
Db|---------------1-2-3---------------------------3-4-5-----------|


gtr1
eb|---------------------------------------------------------------|
bb|---------------------------------------------------------------|
gb|---7-----------------------------------------------------------|
Db|---0---------0---------7-6---5---3-0---------------7-6---5-----|
Ab|---0---------0---------7-6---5---3-0---------------7-6---5-----|
Db|---0---------0---------7-6---5---3-0---------------7-6---5-----|
gtr2
eb|-------------------------10----------------------------------------------|
bb|------------------------10-13-10------------------------12b13-10-12b13-10|
gb|----------------10-12b14--------12b14b12p10-------------12b13-10-12b13-10|
Db|---7----------/12-------------------------12-12p10-10-12-----------------|
Ab|---5---------------------------------------------12----------------------|
Db|---0---------------------------------------------------------------------|
 

gtr1   
eb|---------------------------------------------------------------|
bb|---3---------------6-------------------------------8-----------|
gb|---3---------------5---------------5/7-7-7-7/9-9-7-7-----------|
Db|---3---------------3---------------x---x-x-x---x-x-5-----------|
Ab|---1---------------3---------------3/5-5-5-5/7-7-5-5-----------|
Db|-------------------3-------------------------------5-----------|
gtr2
eb|---------------------------------------------------------------|
bb|---------------------------6-----------------------------------|
gb|---7-------------------7-----------9---------------7-----------|
Db|-----------------------------------10--------------5-----------|
Ab|---------------------------------------------------------------|
Db|---------------------------------------------------------------|

gtr1
eb|---------------------------------------------------------------|
bb|---------------------------------------------------------------|
gb|---7-----------------------------------------------------------|
Db|---0-------------------7-6---5---3-0---------------7-6---5-----|
Ab|---0-------------------7-6---5---3-0---------------7-6---5-----|
Db|---0-------------------7-6---5---3-0---------------7-6---5-----|
gtr2   
eb|----------------------------------------------------------------------|
bb|----------------------------------------------------------------------|
gb|---7------------------------------------------------------------------|
Db|---7-----------------5b7-5~~p3--3-----------------------3---5b6b5-3---|
Ab|---5--------------------------5-----3-----3h5---------5-------------5-|
Db|---0----------------------------------5p3-------0---------------------|

bridge

gtr1
eb|---------------------------------------------------------------|
bb|---------------------------------------------------------------|
gb|---------------------------------------------------------------|
Db|---------------------------------------------------------------|
Ab|---------------------------------------------------------------|
Db|---0-------------------7-6---5---3-0---------------7-6---5---0-|
    
gtr1
eb|---------------------------------------------------------------|
bb|---------------------------------------------------------------|
gb|---------------------------------------------------------------|
Db|---------------------------------------------------------------|
Ab|---------------------------------------------------------------|
Db|-3------------b5b3~~~~-7-6---5---0-5---------------7-6---5-----|


gtr1            w/ bar
eb|---------------------------------------------------------------|
bb|---------------------------------------------------------------|
gb|---------------------------------------------------------------|
Db|---------------------------------------------------------------|
Ab|---------------------------------------------------------------|
Db|-3-0~~~~~~~~~~----0----7-6---5---3-0---------------7-6---5-----|
                 \-2/

gtr1   
eb|---------------------------------------------------------------|
bb|---------------------------------------------------------------|
gb|---------------------------------------------------------------|
Db|---------------------------------------------------------------|
Ab|---------------------------------------------------------------|
Db|-0-3~~~~~~~~~-b5b3-----7-6---5---0-5---------------7-6---5-----|
    
gtr1
eb|---------------------------------------------------------------|
bb|---------------------------------------------------------------|
gb|---------------------------------------------------------------|
Db|---------------------------------------------------------------|
Ab|---------------------------------------------------------------|
Db|-3-0-~~~~---~~~~~~~~~--7-6---5---3-0---------------7-6---5-----|
          \-2/

gtr1
eb|---------------------------------------------------------------|
bb|---------------------------------------------------------------|
gb|---------------------------------------------------------------|
Db|---------------------------------------------------7-6---5-----|
Ab|---------------------------------------------------7-6---5-----|
Db|-0-3~~~~~~~~~~b5b3-----7-6---5---0-5---------------7-6---5-----|
gtr2
eb|---------------------------------------------------------------|
bb|---------------------------------------------------------------|
gb|---------------------------------------------------------------|
Db|--------------vol-swell----------------------------------------|
Ab|-----------*5-------------~~~~~~~~~~~~~~~~~~~~~~~~~~~~~~~~~~~~~|
Db|---------------------------------------------------------------|


solo

gtr2
eb|---------------------------------------------------------------|
bb|---13-----~~~~~~~~~~~~~~~~~~-----------------------------------|
gb|---12b14-----------------(12)-----/12b14----12b14--12b14b12p10-|
Db|-------------------------------------------------------------12|
Ab|~~~------------------------------------------------------------|
Db|---------------------------------------------------------------|
gtr1
eb|---------------------------------------------------------------|
bb|---------------------------------------------------------------|
gb|---------------------------------------------------------------|
Db|-3-0-------------------7-6---5---3-0---------------7-6---5-----|
Ab|-3-0-------------------7-6---5---3-0---------------7-6---5-----|
Db|-3-0-------------------7-6---5---3-0---------------7-6---5-----|



gtr2                        PH.....|
eb|----------------------------------------------------------------|
bb|---------------------------------------1013---1013---1013---1013|
gb|10-12b14-10-------------10b12b10~~~12b14--12b14--12b14--12b14---|
Db|------------12p10-10-12-----------------------------------------|
Ab|----------------12----------------------------------------------|
Db|----------------------------------------------------------------|
gtr2
eb|-----------------------------|
bb|----1013---1013---1013---1013|
gb|12b14--12b14--12b14--12b14---|
Db|-----------------------------|
Ab|-----------------------------|
Db|-----------------------------|
gtr1
eb|---------------------------------------------------------------|
bb|---------------------------------------------------------------|
gb|---------------------------------------------------------------|
Db|-0-3-------------------7-6---5---0-5---------------7-6---5-----|
Ab|-0-3-------------------7-6---5---0-5---------------7-6---5-----|
Db|-0-3-------------------7-6---5---0-5---------------7-6---5-----|



gtr2
eb|------------------------------------------13-15-15b17~~~~~~~17\|
bb|---15~~~~15~~~~15~~~~15~~15\13-------13-15---------------------|
gb|-----------------------------------14--------------------------|
Db|--------------------------------12-----------------------------|
Ab|---------------------------------------------------------------|
Db|---------------------------------------------------------------|
gtr1
eb|---------------------------------------------------------------|
bb|---------------------------------------------------------------|
gb|---------------------------------------------------------------|
Db|-3-0-------------------7-6---5---3-0---------------7-6---5-----|
Ab|-3-0-------------------7-6---5---3-0---------------7-6---5-----|
Db|-3-0-------------------7-6---5---3-0---------------7-6---5-----|



gtr2
eb|-17b20-17-16-15---------15-15b17-15---------13-----------------|
bb|---------------18p15--18-----------18-15--15--15p13--15-13-----|
gb|---------------------------------------------------14----14-12b|
Db|---------------------------------------------------------------|
Ab|---------------------------------------------------------------|
Db|---------------------------------------------------------------|
gtr2
eb|--------------------------12-10-|
bb|--------------------------12-10-|
gb|14-12p10-12-12b14--12p10--------|
Db|------------------------12------|
Ab|--------------------------------|
Db|--------------------------------|
gtr1
eb|---------------------------------------------------------------|
bb|---------------------------------------------------------------|
gb|---------------------------------------------------------------|
Db|-0-3-------------------7-6---5---0-5---------------7-6---5-----|
Ab|-0-3-------------------7-6---5---0-5---------------7-6---5-----|
Db|-0-3-------------------7-6---5---0-5---------------7-6---5-----|



gtr2  wah.........................................................
eb|-????????????????????--------1713----1613----15b16b1513--------|
bb|-????????????????????----1315----1513----1513----------151315~~|
gb|---------------------------------------------------------------|
Db|---------------------------------------------------------------|
Ab|---------------------------------------------------------------|
Db|---------------------------------------------------------------|
gtr2   .....................(wah).....................|
eb|---13------13--15--13------13------13--15--13------|
bb|15\--151315--15--15--15\/15--151315--15--15--151315|
gb|---------------------------------------------------|
Db|---------------------------------------------------|
Ab|---------------------------------------------------|
Db|---------------------------------------------------|
gtr1
eb|---------------------------------------------------------------|
bb|---------------------------------------------------------------|
gb|---------------------------------------------------------------|
Db|-3-0-------------------7-6---5---3-0---------------7-6---5-----|
Ab|-3-0-------------------7-6---5---3-0---------------7-6---5-----|
Db|-3-0-------------------7-6---5---3-0---------------7-6---5-----|


gtr2
eb|-12b13-12---------------------------/22~~~22~~~22~~22~~22\20---|
bb|--------15-12b13-12-----------------------------------------22-|
gb|------------------14-10b12-10-9-10~~---------------------------|
Db|---------------------------------------------------------------|
Ab|---------------------------------------------------------------|
Db|---------------------------------------------------------------|
gtr1
eb|---------------------------------------------------------------|
bb|---------------------------------------------------------------|
gb|---------------------------------------------------------------|
Db|-0-3-------------------7-6---5---0-5---------------7-6---5-----|
Ab|-0-3-------------------7-6---5---0-5---------------7-6---5-----|
Db|-0-3-------------------7-6---5---0-5---------------7-6---5-----|


Last Chorus
gtr1
eb|---------------------------------------------------------------|
bb|---3---------------6---------------5---------------8-----------|
gb|---3---------------5---------------5---------------7-----------|
Db|-0-3---------------3---------------5-----------3-4-5-----------|
Ab|-0-1-------------2-3---------------3-----------3-4-5-----------|
Db|-0---------------2-3---------------------------3-4-5-----------|
gtr2
eb|-20\13~~~~~~~~~~~~~~~~~~~~~~~~~~~17-15~~~~~~~~~~~~~~~~~~~~~~~~~|
bb|---------------------------------------------------------------|
gb|---------------------------------------------------------------|
Db|---------------------------------------------------------------|
Ab|---------------------------------------------------------------|
Db|---------------------------------------------------------------|


gtr1                                                         w/bar
eb|---------------------------------------------------------------|
bb|------------------------------*12--------------------------\\\\|
gb|---7-----------------------------------------------------------|
Db|---0-----------------------------------------------------------|
Ab|---0-----------------------------------------------------------|
Db|---0-----------------------------------------------------------|
gtr2
eb|---14~~~~~~~~~~~~~-------------------------------------------------------|
bb|--------------------------------------------------1010----13-----13~~~~~~|
gb|-----------10-10-----10----101212p10--10-10-------1010--10--14p12--12b14~|
Db|-----------10-10-----10----101212p101210-1012p10-------------------------|
Ab|------------------------------------12----------12-----------------------|
Db|---------0---------0----0------------------------------0-----------------|


gtr1
eb|---------------------------------------------------------------|
bb|---3-----------------------------------------------------------|
gb|---3---------------5---------------5/7-7-7-7/9-9-7-7-7-7-------|
Db|---3-----------1-2-3---------------x---x-x-x---x-x-5-0-5-------|
Ab|---1-----------1-2-3---------------3/5-5-5-5/7-7-5-5-0-5-------|
Db|---------------1-2-3-------------------------------5-0-5-------|
gtr2
eb|---------------------------------------------------------------|
bb|--------------------6------------------------------------------|
gb|---7~~~~~--------------------------9~~~~~~~------------7~~~~---|
Db|---------------------------------------------------------------|
Ab|---------------------------------------------------------------|
Db|---------------------------------------------------------------|


gtr1
eb|---------------------------------------------------------------|
bb|---------------------------------------------------------------|
gb|---7-----------------------------------------------------------|
Db|---0-------------------7-6---5---3-0---------------7-6---5-----|
Ab|---0-------------------7-6---5---3-0---------------7-6---5-----|
Db|---0-------------------7-6---5---3-0---------------7-6---5-----|
gtr2
eb|------------------------------------------------------------------------|
bb|--------------------10--------------------10--------1010----------------|
gb|---7----------------12b14b12b14---12p10---10--------1010---------10-----|
Db|---7-----------------------------------12----12p10--------12p10----12~~~|
Ab|---5----------------------------------------------12-----------12-------|
Db|---0----------------------------------------------------0---------------|


gtr1&2
eb|---------------------------------------------------------------|
bb|-----------------------------------------------------8---------|
gb|---3-------3-------5-------5-------5/7-7-7/9-9-7-7---7--------|
Db|---3-------3-------3-------3-------x---x-x---x-x-5---5---------|
Ab|---1-------1-------3-------3-------3-5-5-5-7-7-5-5---5---------|
Db|-------------------3-------3---------------------5---5---------|


gtr1
eb|---------------------------------------------------------------|
bb|---------------------------------------------------------------|
gb|---7-----------------------------------------------------------|
Db|---0-------------------7-6---5---3-0---------------7-6---5-----|
Ab|---0-------------------7-6---5---3-0---------------7-6---5-----|
Db|---0-------------------7-6---5---3-0---------------7-6---5-----|
gtr2
eb|-----------------------------------------------------------------|
bb|-----------------------------------------------------------------|
gb|---7-------------------------------------------------------------|
Db|---7----------------5b6---5p3---3-3-------3-0-0---0-3---5b6b5p3--|
Ab|---5--------------------------5-----5p3p0---0-0---0-------------5|
Db|---0----------------------------------------0-0---0--------------|



gtr1
eb|---------------------------------------------------3-3---------|
bb|-----------------------------------5-------5---5-5-3-3---------|
gb|---3-------3-------5-------5-------5-------5---5-5-0-0---------|
Db|---3-------3-------3-------3-------5-------5---5-5-0-0---------|
Ab|---1-------1-------3-------3-------3-------3---3-3-x-x---------|
Db|-------------------3-------3-----------------------5-5---------|
gtr2
eb|---------------------------------------------------3-3---------|
bb|-----------------------------------1-----------1-1-3-3---------|
gb|-------------------3~~~~~~~~-------0-----------0-0-0-0---------|
Db|---5~~~~~~~------------------------2-----------2-2-0-0---------|
Ab|-----------------------------------3---------------------------|
Db|---------------------------------------------------------------|


gtr1
eb|---------------------------------------------------------------|
bb|---------------------------------------------------------------|
gb|---------------------------------------------------------------|
Db|---0-------------------7-6---5---3-0---------------------------|
Ab|---0-------------------7-6---5---3-0---------------------------|
Db|---0-------------------7-6---5---3-0---------------------------|
gtr2
eb|--------------------------------------------------------------------16/|
bb|-----------1013---1013---1013---1013---1013---1013-15~~~15~~~15~~~15---|
gb|-------12b14--12b14--12b14--12b14--12b14--12b14------------------------|
Db|-----------------------------------------------------------------------|
Ab|-----------------------------------------------------------------------|
Db|-----------------------------------------------------------------------|


Outro
gtr1                                                                       
eb|---------------------------------------------------------------|      
bb|---------------------------------------------------------------| 
gb|---------------------------------------------------------------|
Db|\----------------------------------------------------------4b5b4|
Ab|\----------5-4-3-0---------------3---------------3---0-3-5------|
Db|\--0-----0---------6~~~~-6-5-3-5---3-----3-4-3-x----------------|


                                           PM......|   PM....|
eb|---------------------------------------------------------------------|
bb|---------------------------------------------------------------------|
gb|---------------------------------------------------------------------|
Db|~~~--------------------------------------------------0-2-3-1--------0|
Ab|-----------5-4-3-0---------------3---------------2---0-2-3-1--------0|
Db|---0-----0---------6~~~~-6-5-3-5---3~~---3-3-4-5-2---0-2-3-1--------0|





| /  slide up
| \  slide down
| h  hammer-on
| p  pull-off
| ~  vibrato
| * harmonic
| PM  Mute note
| PH pinch harmonic
===============================================================================
1 comment total.
0 reply
Andrew Zara wrote on February 22 2005, 12:00 am

the leads during the chorus's are wrong

I want to post or [tab]
guest
You may want to rate the tab now too:
select rating
Please do not post tabs as comments. Select "correction" instead!