Oops, an error
Loading. Please wait.

Find The Real Tab

ver4
ver4

Intro

Solo

Whole song

More versions @911Tabs.com
4,726 views 39 this week
no commentswrite comment
1 2 3 4 5
excellent!
x 2
Autoscroll
+/-
esc
set tempo
stop
Contributor
Tuning
C# G# C# F# A# D#
Hey! There's an official Ultimate Guitar app which is ideal
for learning songs when you're away from computer. Get the app
WARNING: You are trying to view
                                    content from Ultimate-Guitar.com
                                    in an unauthorized application,
                                    which is prohibited.

                                    Please use an official Ultimate
                                    Guitar Tabs application for iPhone,
                                    iPad or Android to access legitimate
                                    chords, guitar, bass, and drum tabs
                                    from Ultimate-Guitar.com database.

                                    Type "ultimate guitar tabs" in Apple
                                    App Store's or Android Market's
                                    search to find the application.
    Find The Real


                                                                    Alter Bridge
Tremonti



                                       PM PM PM
       Q        E.  S S S S   S E.   S S  S  S  S
D#||---------|------------------------------------|
A#||---------|------------------------------------|
F#||---------|------------------------------------|
C#||---------|------------------------------------|
G#||---------|--------5-4-3---------------------3-|
C#||--12\----|--0---0-------6g7-6~---6-0--3--5----|


         PM PM PM                                              PM PM PM
  E.   S S  S  S  S S S S S   S.  T E      Q    S S S S E.   S S  S  S  S
----------------------------------------|---------------------------------|
----------------------------------------|---------------------------------|
----------------------------------------|---------------------------------|
----------------------------<>4br-L-L~--|---------------------------------|
------------------3-L-0-3-5-------------|-------5-4-3-------------------3-|
--3~---3-0--3--5------------------------|--0----------7-6~---6-0--3--5----|


         PM PM PM
  E.   S S  S  S  S S S S S S   S E
--------------------------------------|
--------------------------------------|
--------------------------------------|
---------0--3--5--2-L-0-2-5-----------|
---------0--3--5--2-L-0-2-5-----------|
--3~---3-0--3--5--2-L-0-2-5-1br-L-L~--|


  Stuck in the middle, I burrow inside
                                         PM PM PM          PM PM PM
  E.                                   S S  S  S  S E.   S S  S  S  S
----------------------------------------------------------------------|
----------------------------------------------------------------------|
----------------------------------------------------------------------|
----------------------------------------------------------------------|
-----------------------------------------5--4--3--------------------3-|
--0------------------------------------0----------7-6~---6-0--3--5----|


                     Back To the cradle
        PM PM PM     PM                 PM PM
  E.  S S  S  S  S S S                  S  S  S.  T E
--------------------------------------------------------|
--------------------------------------------------------|
--------------------------------------------------------|
----------------------------------------------4br-L-L~--|
-----------------3-L-0------------------3--5------------|
--3---3-0--3--5-----------------------------------------|


      Away from the burdens, of all my crimes
                                              PM PM PM          PM PM PM
  E.  S                                       S  S  S  S E.   S S  S  S  S
---------------------------------------------------------------------------|
---------------------------------------------------------------------------|
---------------------------------------------------------------------------|
---------------------------------------------------------------------------|
----------------------------------------------5--4--3--------------------3-|
--0---0------------------------------------------------7-6~---6-0--3--5----|


                      Before it's fatal
         PM PM PM     PM                PM PM
  E.   S S  S  S  S S S                 S  S  S.  T E
--------------------------------------------------------|
--------------------------------------------------------|
--------------------------------------------------------|
--------------------------------------------------------|
------------------3-L-0-----------------3--5--5br-L-L~--|
--3~---3-0--3--5----------------------------------------|


        The past has found me, the truth's come out
                                                                 PM PM PM
  E  E  S                                           S S S E.   S S  S  S  S
----------------------------------------------------------------------------|
----------------------------------------------------------------------------|
----------------------------------------------------------------------------|
----------------------------------------------------------------------------|
--------5-------------------------------------------4-3-------------------3-|
--0--0--------------------------------------------------7-6~---6-0--3--5----|


                      All is remembered
         PM PM PM
  E.   S S  S  S  S S S                 S S S.  T E
------------------------------------------------------|
------------------------------------------------------|
------------------------------------------------------|
--------------------------------------------4br-L-L~--|
------------------3-L-0-----------------3-5-----------|
--3~---3-0--3--5--------------------------------------|


       With no place to fall, but straight down
                                                             PM PM PM
  Q    S                                        S S S E.   S S  S  S  S
------------------------------------------------------------------------|
------------------------------------------------------------------------|
------------------------------------------------------------------------|
------------------------------------------------------------------------|
-------5----------------------------------------4-3-------------------3-|
--0-------------------------------------------------7-6~---6-0--3--5----|


                I must surrender
  E.  S S S S S S                S S S    E.    S
--------------------------------------------------|
--------------------------------------------------|
--------------------------------------------------|
---------------------------------------<>(4)~---L-|
--3---3-------3-L----------------0-3-5------------|
--3---3-0-3-5-------------------------------------|


      Well it seems i've,                     Finally
  E.  S                    S S S S E  S S S S S       S
--------------------------------------------------------|
--------------------------------------6-6-6-6-6-------6-|
--------------------------------------5-5-5-5-5-------5-|
--3---3--------------------3----------3-3-3-3-3-------3-|
--1---1--------------------1-0-1-2-3--3-3-3-3-3-------3-|
-----------------------------0-1-2-3--3-3-3-3-3-------3-|


             thought of everything
  E  S S S S S                     S S S S S S S S S
-----------------------------------------------------|
-----------------------------------------------------|
--5--5-5-----------------------------7-7-7-7-7-7-7-7-|
--5--5-5-5---------------------------5-5-5-5-5-5-5-5-|
--3--3-3-3-0-3---------------------4-5-5-5-5-5-5-5-5-|
-----------0-3---------------------4-5-5-5-5-5-5-5-5-|


  Q    E.  S S S  E    S   S    T   T  S
-----------------------------------------|
--7----7---------13----L--13-------------|
--7----7---------12b---Lb-12br--Lp-10----|
--0----0------------------------------12-|
--0----0---0-0-0-------------------------|
--0----0---0-0---------------------------|


             v
   E.    S   E.  S   E   S  S  S  E   S
----------------------------------------|
--------------------------------------0-|
--10~----L\~-x----------------12-10~--0-|
-------------x----------10------------0-|
-------------x-----/12-----12-----------|
-------------0---0----------------------|


  I wanna love                i wanna feel
  E.           S S S S S E  S S            S S S S
---------------------------------------------------|
---------------------------------------------------|
----------------------------5-5------------5-5-----|
--3------------3-3----------3-3------------3-3-----|
--1------------1-1-0-1-2-3--3-3------------3-3-----|
-------------------0-1-2-3--3-3------------3-3-3-0-|


     find peace                     Find The Real
  S  S          S S S  S S S E  S S S             S S  S
---------------------------------------------------------|
---------------------------0----8-8-8-------------8-8s-7-|
--5s-7----------7-7-7s-9-9-0----7-7-7-------------7-7----|
--x--x----------x-x-x--x-x-0-5--5-5-5-------------5-5----|
--3s-5----------5-5-5s-7-7-0-5--5-5-5-------------5-5----|
-----------------------------5--5-5-5-------------5-5----|


  Q    E.  S S S  E    S  S    T   T  S
----------------------------------------|
--7----7---------13----L-13-------------|
--7----7---------12b---L-12br--Lp-10----|
--0----0-----------------------------12-|
--0----0---0-0-0------------------------|
--0----0---0-0--------------------------|


   E.    S  S   S  S  S  S  S  S  S  E.    S    E.  S S S S S E.   S S S S S
------------------------------13-15--Lb----L-|-------------------------------|
------------------13----13-15-13-15--Lb----L-|-------------------------------|
--10~---10-12s-14----14----------------------|-------------------------------|
---------------------------------------------|-------------------------------|
---------------------------------------------|--0---0-5-4-3----------------3-|
---------------------------------------------|--0---0-------7-6~---6-0-3-5---|


  E.   S S S S S S S S S   S.  T E      E.  S S S S S E.   S S S S S
-------------------------------------|-------------------------------|
-------------------------------------|-------------------------------|
-------------------------------------|-------------------------------|
-------------------------<>4br-L-L~--|-------------------------------|
---------------3-L-0-3-5-------------|--------5-4-3----------------3-|
--3~---3-0-3-5-----------------------|--0---0-------7-6~---6-0-3-5---|


  E.   S S S S S S S S S S.  T E
-----------------------------------|
-----------------------------------|
-----------------------------------|
-----------------------------------|
---------------3-L-0-3-5-5br-L-L~--|
--3~---3-0-3-5---------------------|


        There's a face I put on, all my life
        PM                                   PM PM          PM PM PM
  E.  S S                                    S  S  S E.   S S  S  S  S
-----------------------------------------------------------------------|
-----------------------------------------------------------------------|
-----------------------------------------------------------------------|
-----------------------------------------------------------------------|
--------5------------------------------------4--3--------------------3-|
--0---0--------------------------------------------7-6~---6-0--3--5----|


                    Face of an angel
         PM PM PM                    PM PM PM
  E.   S S  S  S  S S                S  S  S  S.  T E
--------------------------------------------------------|
--------------------------------------------------------|
--------------------------------------------------------|
----------------------------------------------4br-L-L~--|
------------------3-L----------------0--3--5------------|
--3~---3-0--3--5----------------------------------------|


      I look in the mirror, only to find
                                         PM PM PM          PM PM PM
  E.  S                                  S  S  S  S E.   S S  S  S  S
----------------------------------------------------------------------|
----------------------------------------------------------------------|
----------------------------------------------------------------------|
----------------------------------------------------------------------|
-----------------------------------------5--4--3--------------------3-|
--0---0-------------------------------------------7-6~---6-0--3--5----|


                 Face of a stranger
        PM PM PM                      PM PM PM
  E.  S S  S  S  S                  S S  S  S  S.  T E
---------------------------------------------------------|
---------------------------------------------------------|
---------------------------------------------------------|
---------------------------------------------------------|
-----------------3------------------L-0--3--5--5br-L-L~--|
--3---3-0--3--5------------------------------------------|


        With all i've taken i hunger for more
        PM                                    PM PM          PM PM PM
  E  E  S                                     S  S  S E.   S S  S  S  S
------------------------------------------------------------------------|
------------------------------------------------------------------------|
------------------------------------------------------------------------|
------------------------------------------------------------------------|
--------5-------------------------------------4--3--------------------3-|
--0--0----------------------------------------------7-6~---6-0--3--5----|


                    'cause im selfish
         PM PM PM                     PM PM PM
  E.   S S  S  S  S S                 S  S  S  S.  T E
---------------------------------------------------------|
---------------------------------------------------------|
---------------------------------------------------------|
-----------------------------------------------4br-L-L~--|
------------------3-L-----------------0--3--5------------|
--3~---3-0--3--5-----------------------------------------|


       And all im left with is a crown of thorns
       PM                                        PM PM          PM PM PM
  Q    S                                         S  S  S E.   S S  S  S  S
---------------------------------------------------------------------------|
---------------------------------------------------------------------------|
---------------------------------------------------------------------------|
---------------------------------------------------------------------------|
-------5-----------------------------------------4--3--------------------3-|
--0----------------------------------------------------7-6~---6-0--3--5----|


              And im helpless
        PM PM PM
  E.  S S  S  S               S S S S S    E.    S
---------------------------------------------------|
---------------------------------------------------|
---------------------------------------------------|
----------------------------------------<>(4)~---L-|
--3---3-----------------------3-L-0-3-5------------|
--3---3-0--3--5------------------------------------|


      Well it seems i've                  Finally
  E.  S                  S S S S E  S S S S       S S
------------------------------------------------------|
------------------------------------6-6-6-6-------6-6-|
------------------------------------5-5-5-5-------5-5-|
--3---3------------------3----------3-3-3-3-------3-3-|
--1---1------------------1-0-1-2-3--3-3-3-3-------3-3-|
---------------------------0-1-2-3--3-3-3-3-------3-3-|


     Thought of everything
  E  S                     S S S S S S S S S S S S S
-----------------------------------------------------|
-----------------------------------------------------|
--5--5---------------------5---------7-7-7-7-7-7-7-7-|
--5--5---------------------5-5-------5-5-5-5-5-5-5-5-|
--3--3---------------------3-3-0-3-4-5-5-5-5-5-5-5-5-|
-------------------------------0-3-4-5-5-5-5-5-5-5-5-|


              |-3-|  |---3--|  |--6--|    |--6--|
  Q    Q      E   S  S   S  S  S  S  S    S  S  S
---------------------------10---------------------|
--7----7----------------10----13-10---------------|
--7----7---------10-12b-------------12br--L-10----|
--0----0----/12--------------------------------12-|
--0----0------------------------------------------|
--0----0------------------------------------------|


   E    T  T  S  S  S S  S    E   S  S    E   S S
--------------------------------------------------|
------------------------12br--L--10-12br--L-------|
--10~-------------------12br--L--10-12br--L--10---|
-------12-10----10-12------------------------10-0-|
-------------12---------------------------------0-|
--------------------------------------------------|


      I wanna love              I wanna feel
  E.  S            S S S S E  S S            S S S S
-----------------------------------------------------|
-----------------------------------------------------|
------------------------------5-5------------5-5-----|
--3---3------------3----------3-3------------3-3-----|
--1---1------------1-0-1-2-3--3-3------------3-3-----|
---------------------0-1-2-3--3-3------------3-3-3-0-|


         Find peace               Find the real
  S  S S S          S  S S S E  S S             S S S  S
---------------------------------------------------------|
---------------------------0----8-8-------------8-8-8s-7-|
--5s-7-7-7----------7s-9-9-0----7-7-------------7-7-7----|
--x--x-x-x----------x--x-x-0-5--5-5-------------5-5-5----|
--3s-5-5-5----------5s-7-7-0-5--5-5-------------5-5-5----|
-----------------------------5--5-5-------------5-5-5----|


                           |-3-|                               |--3--|
  Q    E.  S S S E   S S   S S S    E  T  T S S  S S S S S S S S   S S E
---------------------------------|----------------------------------------|
--7----7---7-7-------------------|----------------------------------------|
--7----7---7-7-------------------|----------------------------------------|
--0----0---0-0-0-5b--L-5br-L-3---|--3--------------------3-----5br-L-3----|
--0----0---0-0-0---------------5-|-----5p-3---3h-5---------------------5--|
--0----0---0-0-0-----------------|----------5------0-0-L---0-0------------|


                                           Well, i'll
  <
  H        E  S S S E  S    H        S S S S          S E  S
-------------------------|-----------------------------------|
-------------------------|-----------------------------------|
-------------------------|-----------------------------------|
-------------------------|-----------------------------------|
-------------------------|-----------------------------------|
--0--------L--7-6-L-5--3-|--0--------L-0-7-6----------L-5--0-|


  trade these lies for
  E                     S S   Q    S S S S S E  S
--------------------------------------------------|
--------------------------------------------------|
--------------------------------------------------|
--------------------------------------------------|
--------------------------------------------------|
--3---------------------L-Lbr-L----L-0-7-6-L-5--0-|


  something right  oo
                                           \1/
  H                   S S S S S E  S    E  S   S Q    S S S S S E  S
-------------------------------------|-------------------------------|
-------------------------------------|-------------------------------|
-------------------------------------|-------------------------------|
-------------------------------------|-------------------------------|
-------------------------------------|-------------------------------|
--5-------------------L-0-7-6-L-5--3-|--0--L---0-L----L-0-7-6-L-5--3-|


                    I will
  H        E  S S S E       S
------------------------------|
------------------------------|
------------------------------|
------------------------------|
------------------------------|
--0--------L--7-6-L-5-------3-|


  kill what hurts with
  E                     S S   Q    S S S S S E  S
--------------------------------------------------|
--------------------------------------------------|
--------------------------------------------------|
--------------------------------------------------|
--------------------------------------------------|
--3---------------------L-Lbr-L----L-0-7-6-L-5--0-|


  something pure ooo
  H                  S S S S S E  S    H        E  S S S E  S
------------------------------------|-------------------------|
------------------------------------|-------------------------|
------------------------------------|-------------------------|
------------------------------------|-------------------------|
------------------------------------|-------------------------|
--5------------------L-0-7-6-L-5--3-|--0--------L--7-6-L-5--3-|


                    i will         be redeemed so
  H        E  S S S E      S    E  S              S   Q    S S S S S E  S
-----------------------------|--------------------------------------------|
-----------------------------|--------------------------------------------|
-----------------------------|--------------------------------------------|
-----------------------------|--------------------------------------------|
-----------------------------|--------------------------------------------|
--0--------L--7-6-L-5------3-|--3--L--------------Lbr-L----L-0-7-6-L-5--0-|


  i can breathe again!
  H                    S S S S S E  S     H          Q.      E
--------------------------------------|-------------------------|
--8-----------------------------------|--13----------L~---------|
--7-----------------------------------|--12b-----------------0--|
--5-----------------------------------|----------------------0--|
--5----------------------0-7-6-L-5----|-------------------------|
--5--------------------L-0-7-6-L-5--0-|-------------------------|


   Q.       E    Q     S    T   T  S  S
----------------------------------------|
--13-------13~---L----------------------|
--12b------12b---L----12br--Lp-10-12-10-|
----------------------------------------|
----------------------------------------|
----------------------------------------|


   S   E.    E   T   T  S  S  S S    S    E   S S
--------------------------------------------------|
--------------------------------------------------|
--12b-10~----L--------------------<>10br--L~------|
----------------12p-10----10-12---------------0-0-|
-----------------------12-------------------------|
--------------------------------------------------|


   |---6--|  |---6--|  |---6--|  |---6--|  |---6--|  |---6--|  |---6--|  |---6--
   S   S  S  S   S  S  S   S  S  S   S  S  S   S  S  S   S  S  S   S  S  S   S
---------------------------------------------------------------------------------|
------10-13-----10-13-----10-13-----10-13-----10-13-----10-13-----10-13-----10-1-|
--12b-------12b-------12b-------12b-------12b-------12b-------12b-------12b------|
---------------------------------------------------------------------------------|
---------------------------------------------------------------------------------|
---------------------------------------------------------------------------------|


   E.    S     E      E      S     E.      S     S     S S
-----------------------------------------------------------|
--13b---13pb~--Lpb~--13pb~---Lpb~-13pb~---13pbr--L---------|
-----------------------------------------------------------|
---------------------------------------------------12g10-0-|
-----------------------------------------------------------|
-----------------------------------------------------------|


    S  S  S  S  S S  S   S    Q      S     S S  S
------------13-15---15b-15pb--L~----15pbr--L---17b-|
------13-15----------------------------------------|
--/14-------------0--------------------------------|
---------------------------------------------------|
---------------------------------------------------|
---------------------------------------------------|


   S  S  S  S  S  S  S  S  E    E    X  T.  E    S
---L-17-16-15-13----13-15-15b--14b--13--------------|
-----------------15--------------------15~--L~--15~-|
----------------------------------------------------|
----------------------------------------------------|
----------------------------------------------------|
----------------------------------------------------|


   S  T   T   S  S  S  S  T   S  T  S  S  T   T  S  S  S  T  T   S
--13------------10------------------------------------10-10--------|
-----15p-13s-10----13-10--------------10--------------10-10-12p-10-|
-------------------------12b-12-10-12-10-12p-10-------10-10--------|
------------------------------------------------12-12--------------|
---------------------------------------------------12--------------|
-------------------------------------------------------------------|


   T   T   T  T   T   T  T   T   T  T   T   T  T   T   T  T   T   T  T   T   T
--10h-15p-10------------10h-15p-10------------13h-17p-13------------13h-17p-13---|
-----------------------------------13p-10h-13------------15p-13h-15------------1-|
-------------12p-10h-12----------------------------------------------------------|
---------------------------------------------------------------------------------|
---------------------------------------------------------------------------------|
---------------------------------------------------------------------------------|


   TP TP TP TP TP TP TP TP TP TP TP TP TP TP TP TP TP TP TP TP TP TP TP TP TP TP
   T  T  T  T  T  T  T  T  T  T  T  T  T  T  T  T  T  T  T  T  T  T  T  T  T  T
--13-10----10-13-10-15-10-13-10----10-13-10----10-13-10----10-13-10-15-10-13-10-|
--------13----------------------13----------13----------13----------------------|
--------------------------------------------------------------------------------|
--------------------------------------------------------------------------------|
--------------------------------------------------------------------------------|
--------------------------------------------------------------------------------|


                 \0/           \0/
   S.  T  S   S  S.  T  S   S  S.  T  S  S  E.   S
--13p-12--Lp-10------------------------------------|
----------------13p-12--Lp-10----------------------|
------------------------------12p-10--Lp-9-12~-----|
-------------------------------------------------0-|
-------------------------------------------------0-|
---------------------------------------------------|


   E.    S     E      E      S     E.      S     S  S  S
--20b---20pb~--Lpb~--20pb~---Lpb~-20pb~---20pbr--L-17-20-|
---------------------------------------------------------|
---------------------------------------------------------|
---------------------------------------------------------|
---------------------------------------------------------|
---------------------------------------------------------|


   Well it seems i've                    finally
   \2
   Q                  H         E   S    S
---L--------------------------------------------|
---------------------18---------L--20br--L------|
------------------------------------------------|
------------------------------------------------|
------------------------------------------------|
------------------------------------------------|


         thought of             everything
   Q     Q           E   Q    S S              W
-------------------------------------------|--------------------|
---L----20----------20--20-----------------|--19----------------|
-------------------------------------------|--------------------|
------------------------------0-0----------|--------------------|
------------------------------0-0----------|--------------------|
-------------------------------------------|--------------------|


   (*feedback*)
                                 \2
   E             Q.        E     Q       E
---------------------------------------------|
---L-----------(19)~-------L~--(19)~-----L~--|
---------------------------------------------|
---------------------------------------------|
---------------------------------------------|
---------------------------------------------|


   I wanna love          i wanna feel
  E.            S S S S S             E  S S S S S S
-----------------------------------------------------|
-----------------------------------------6-6-6-6-6-6-|
-----------------------------------------5-5-5-5-5-5-|
--3-------------3-3----------------------3-3-3-3-3-3-|
--1-------------1-1-0-1-2-------------3--3-3-3-3-3-3-|
--------------------0-1-2-------------3--3-3-3-3-3-3-|


  find peace                     find the real
  S          S S S S  S S S E  S S             S S S  S
--------------------------------------------------------|
--------------------------0----8-8-------------8-8-8s-7-|
--5s---------7-7-7-7s-9-9-0----7-7-------------7-7-7----|
--x----------x-x-x-x--x-x-0-5--5-5-------------5-5-5----|
--3s---------5-5-5-5s-7-7-0-5--5-5-------------5-5-5----|
----------------------------5--5-5-------------5-5-5----|


  Q    E.  S S S  E    S  S    T   T  S
----------------------------------------|
--7----7---------13----L-13-------------|
--7----7---------12b---L-12br--Lp-10----|
--0----0-----------------------------12-|
--0----0---0-0-0------------------------|
--0----0---0-0--------------------------|


   E    T   T  S  S  S S S S S  T   T  S  S  E   S
---------------------------------------------------|
-----------------10-10-----------------------------|
--10~------------10-10-------------------10------0-|
-------12p-10------------------12p-10-------12~--0-|
--------------12---------0-L-0--------12---------0-|
-----------------------0-0-L-0---------------------|


  well it seems i've                      finally
  E.                 S S S S S E  S S S S S       S
----------------------------------------------------|
----------------------------------6-6-6-6-6-------6-|
----------------------------------5-5-5-5-5-------5-|
--3------------------3-3----------3-3-3-3-3-------3-|
--1------------------1-1-0-1-2-3--3-3-3-3-3-------3-|
-------------------------0-1-2-3--3-3-3-3-3-------3-|


  thought of everything
  E                     S S S S S S S S S S S S S S
----------------------------------------------------|
----------------------------------------------------|
--5---------------------5-5---------7-7-7-7-7-7-7-7-|
--5---------------------5-5-5-------5-5-5-5-5-5-5-5-|
--3---------------------3-3-3-0-3-4-5-5-5-5-5-5-5-5-|
------------------------------0-3-4-5-5-5-5-5-5-5-5-|


                                                   PM       PM PM
                           |--3-|                                 |---3--|
  Q    E.  S S S E   S S   S  S S    E  T  T S S S S  S S S S  S  S   S  S S S
----------------------------------|--------------------------------------------|
--3----3---3-3--------------------|--------------------------------------------|
--2----2---2-2--------------------|--------------------------------------------|
--0----0---0-0-0-5b--L-5br-Lp-3---|--3---------3-3--------3-------5br-Lp-3-----|
--0----0---0-0-0----------------5-|-----5p-3-------------------------------5-0-|
--0----0---0-0-0------------------|----------5-----0--0-x---0--0---------------|


  I wanna love                 I wanna feel
  E            S S S S S S S   S            S  S  S S S S
----------------------------------------------------------|
----------------------------------------------------------|
--7------------7-7-7-7-7-7-7s-10-----------10-10-10-5-5-5-|
--x------------x-x-x-x-x-x-x----------------x--x--x-x-x-x-|
--5------------5-5-5-5-5-5-5s--8------------8--8--8-3-3-3-|
----------------------------------------------------------|


     find peace                      FIND THE REAL!!!
  S  S          S S S S S S S  S S S E                S S
----------------------------------------------------------|
----------------------------------------------------------|
--7s-9----------9-9-9-9-9-9-9s-7-7-7-7----------------7-7-|
--x-------------x-x-x-x-x-x-x----x-x-x----------------x-x-|
--5s-7----------7-7-7-7-7-7-7s-5-5-5-5----------------5-5-|
----------------------------------------------------------|


          |---6--|  |---6--|  |---6--|  |---6--|  |---3--|
  E.   S  S   S  S  S   S  S  S   S  S  S   S  S  S   S  S  S   S
------------------------------------------------------------------|
-------------10-13-----10-13-----10-13-----10-13-----10-13-----13-|
------10-12b-------12b-------12b-------12b-------12b-------12b----|
------------------------------------------------------------------|
--0---------------------------------------------------------------|
--0---------------------------------------------------------------|


   Q.        E      S  S     S   S  E    S S
-----------------------------------15b---L---|
--13b~------13pb~---L-13pbr--Lp-10-----------|
---------------------------------------------|
---------------------------------------------|
---------------------------------------------|
---------------------------------------------|


                         PM PM PM             PM PM PM
  E.  S S S S   S E.   S S  S  S  S    E.   S S  S  S  S S S S S   S.  T E
------------------------------------|----------------------------------------|
------------------------------------|----------------------------------------|
------------------------------------|----------------------------------------|
------------------------------------|----------------------------<>4br-L-L~--|
--------5-4-3---------------------3-|------------------3-L-0-3-5-------------|
--0---0-------6g7-6~---6-0--3--5----|--3~---3-0--3--5------------------------|


                      PM PM PM            PM PM PM
  Q    S S S S E.   S S  S  S  S    E.  S S  S  S  S S S S S Q       H
---------------------------------|--------------------------------|-----------|
---------------------------------|--------------------------------|-----------|
---------------------------------|--------------------------------|-----------|
---------------------------------|--------------------------------|-----------|
-------5-4-3-------------------3-|--3---3-0--3--5--2-L-0-2-6-1----|--L--------|
--0----------7-6~---6-0--3--5----|--3---3-0--3--5--2-L-0-2-6-1----|--L--------|


  W                   Q    Q    H
-------------------|---------------------||
-------------------|---------------------||
-------------------|---------------------||
-------------------|--0------------------||
--0----------------|--0------------------||
--0----------------|--0------------------||




Duration Legend
---------------
W - whole
H - half
Q - quarter
E - 8th
S - 16th
T - 32nd
X - 64th
. - note dotted
|-n-|  - n-tuplets


Tablature Legend
----------------
L - tied note
x - dead note
g - grace note
(n) - ghost note
> - accentuded note
NH - natural harmonic
AH - artificial harmonic
TH - tapped harmonic
SH - semi harmonic
PH - pitch harmonic
h - hammer on
p - pull off
b - bend
br - bendRelease
pb - preBend
pbr - preBendRelease
brb - bendReleaseBend
\n/ - tremolo bar dip
\n - tremolo bar dive
-/n - tremolo bar Release up
/n\ - tremolo bar inverted dip
/n - tremolo bar return
-\n - tremolo bar Release down
S - shift slide
s - legato slide
/ -  slide into from below or out of upwards
\ -  slide into from above or out of downwards
~ - vibrato
W - wide vibrato
tr - trill
TP - tremolo picking
T - tapping
S - slap
P - pop
< - fade in
^ - brush up
v - brush down
comments
We did not receive enough feedback on this tab! Please rate:
print report bad tab
1 2 3 4 5
I want to post or [tab]
guest
You may want to rate the tab now too:
select rating
Please do not post tabs as comments. Select "correction" instead!