Oops, an error
Loading. Please wait.

Home Tab

ver2
ver2

Whole song

Interactive

More versions @911Tabs.com
1,060 views 12 this week
no commentswrite comment
1 2 3 4 5
excellent!
x 1
add to favorites launch autoscroll
font size
0
reset
Autoscroll
+/-
esc
set tempo
stop
Contributor
Difficulty
Tuning
intermediate
B F# B E G# C#
WARNING: You are trying to view
                                    content from Ultimate-Guitar.com
                                    in an unauthorized application,
                                    which is prohibited.

                                    Please use an official Ultimate
                                    Guitar Tabs application for iPhone,
                                    iPad or Android to access legitimate
                                    chords, guitar, bass, and drum tabs
                                    from Ultimate-Guitar.com database.

                                    Type "ultimate guitar tabs" in Apple
                                    App Store's or Android Market's
                                    search to find the application.
#----------------------------------PLEASE NOTE---------------------------------#
#This file is the author's own work and represents their interpretation of the #
#song. You may only use this file for private study, scholarship, or research. #
#------------------------------------------------------------------------------##

                                      HOME
                           As recorded by Alter Bridge
                         (From the 2010 Album AB III.5)

Words and Music by Mark Tremonti and Myles Kennedy
Transcribed by Liam Briggs - briggs.liam@gmail.com

          A5
      7 7 7 x x x

Gtr I (B F# B E G# C#) - 'Guitar 1'
Gtr II (B F# B E G# C#) - 'Guitar 2'
Gtr III (B F# B E G# C#) - 'Guitar 3'
Gtr IV (B F# B E G# C#) - 'Guitar 4'
Gtr V (B F# B E G# C#) - 'Guitar 5'
Gtr VI (B F# B E G# C#) - 'Guitar 6'

 Intro
  Moderately Slow Q=94
  A7                                C6                 Fadd9
 4/4
  Gtrs I, II
  S S S S +S  S S S S E S S S S S     S S  S S +S   S  S S S E S S S S S
|---------------------------------|--------------------------------------|
|---------------------------------|--------------------------------------|
|-------0-(0)---------0---------0-|----------0-(0)-----------0-------0---|
|-----7-------7-----7---7-----7---|-------10-------10\-----3---3-------3-|
|---0-------------0---------0-----|-----0----------------0---------0-----|
|-7-------------7---------7-------|-/10----------------3---------3-------|


    A7
    Gtrs I, II
    S S S S +S  S S S  S  E S S S S S
||------------------------------------|
||o-----------------------------------|
||--------0-(0)-----------0---------0-|
||------7-------7------7----7-----7---|
||o---0-------------0-----------0-----|
||--7-------------7-----------7-------|
|
|   Gtrs III, IV
|   S S S S  E    E   +H
||------------------------------------|
||o-----------------------------------|
||------------------------------------|
||--7-7-7-7-------7---(7)-------------|
||o-7-7-7-7-------7---(7)-------------|
||--7-7-7-7-------7---(7)-------------|


  C6                  Fadd9
    S  S  S S +S   S  S S S E S S S S S
|----------------------------------------||
|---------------------------------------o||
|-----------0-(0)-----------0-------0----||
|--------10-------10\-----3---3-------3--||
|------0----------------0---------0-----o||
|-/10-----------------3---------3--------||
|
|  +W
|----------------------------------------||
|---------------------------------------o||
|----------------------------------------||
|--(7)-----------------------------------||
|--(7)----------------------------------o||
|--(7)-----------------------------------||


  A7                                  C6                 Fadd9
  S S S S +S  S S S S E   S S S S S     S S  S S +S   S  S S S E   S S S S S
|-----------------------------------|----------------------------------------||
|-----------------------------------|----------------------------------------||
|-------0-(0)---------0-----------0-|----------0-(0)-----------0---------0---||
|-----7-------7-----7-----7-----7---|-------10-------10\-----3-----3-------3-||
|---0-------------0-----------0-----|-----0----------------0-----------0-----||
|-7-------------7-----------7-------|-/10----------------3-----------3-------||
|
| PM-------------------------------------------------------|
| S S S S  S  S S S S S S S S S S S     S S  S S  S   S  S S S S S S S S S S
|-----------------------------------|----------------------------------------||
|-----------------------------------|----------------------------------------||
|-----------------------------------|----------------------------------------||
|-----------------------------------|------------------------7-7-7-7-7-7-7-7-||
|-7-7-7-7--7--7-7-7-7-7-7-7-7-7-7-7-|---7-7--7-7--7---7--7-7-7-7-7-7-7-7-7-7-||
|-7-7-7-7--7--7-7-7-7-7-7-7-7-7-7-7-|---7-7--7-7--7---7--7-7-7-7-7-7-7-7-7-7-||


 Verse 1
  A7                                C6                  Fadd9
  Gtrs I, II
  S S S S +S  S S S S E S S S S S     S  S  S S +S   S  S S S E S S S S S
|---------------------------------|----------------------------------------|
|---------------------------------|----------------------------------------|
|-------0-(0)---------0---------0-|-----------0-(0)-----------0-------0----|
|-----7-------7-----7---7-----7---|--------10-------10\-----3---3-------3--|
|---0-------------0---------0-----|------0----------------0---------0------|
|-7-------------7---------7-------|-/10-----------------3---------3--------|
|
| Gtrs III, IV
| >
| W                                  +W
|---------------------------------|----------------------------------------|
|---------------------------------|----------------------------------------|
|---------------------------------|----------------------------------------|
|---------------------------------|----------------------------------------|
|-7-------------------------------|--(7)-----------------------------------|
|-5-------------------------------|--(5)-----------------------------------|


    A7
    S S S S +S  S S S S E S S S S S
||----------------------------------|
||o---------------------------------|
||--------0-(0)---------0---------0-|
||------7-------7-----7---7-----7---|
||o---0-------------0---------0-----|
||--7-------------7---------7-------|
|
|   W
||----------------------------------|
||o---------------------------------|
||----------------------------------|
||----------------------------------|
||o---------------------------------|
||----------------------------------|


  C6                 Fadd9                 G
    S S  S S +S   S  S S S E S S S S S     W
|---------------------------------------||-----------------||
|--------------------------------------o||-0---------------||
|----------0-(0)-----------0-------0----||-0---------------||
|-------10-------10\-----3---3-------3--||-0---------------||
|-----0----------------0---------0-----o||-x---------------||
|-/10----------------3---------3--------||-5---------------||
|
|   W                                      H    Q  E S S
|---------------------------------------||-----------------||
|--------------------------------------o||-----------------||
|---------------------------------------||-----------------||
|---------------------------------------||-----------x-x---||
|--------------------------------------o||-----------x-x---||
|---------------------------------------||-----------x-x---||


 Chorus
  Asus2                   C5
  Gtrs III, IV
  Q  E. S S S E S S S S    Q   E.  S  S  S  E  S  S  S  S
|-----------------------|---------------------------------|
|-----------------------|---------------------------------|
|-----------------------|---------------------------------|
|-9--9--9-9-9-9-9-9-9-9-|-10--10--10-10-10-10-10-10-10-10-|
|-7--7--7-7-7-7-7-7-7-7-|-10--10--10-10-10-10-10-10-10-10-|
|-7--7--7-7-7-7-7-7-7-7-|-10--10--10-10-10-10-10-10-10-10-|


  G                       D5/A        C5    B5
  Q  E. S S S E S S S S   Q  E. S S S E +S  S    +S  +S
|-----------------------|--------------------------------|
|-----------------------|-3--3--3-3-3--------------------|
|-----------------------|-2--2--2-2-2--------------------|
|-9--9--9-9-9-9-9-9-9-9-|-0--0--0-0-0--------------------|
|-5--5--5-5-5-5-5-5-5-5-|-0--0--0-0-0-3-(3)-2b3==(2)r(2)-|
|-5--5--5-5-5-5-5-5-5-5-|--------------------------------|


  Asus2                   C5
  Q  E. S S S E S S S S    Q   E.  S  S  S  E  S  S  S  S
|-----------------------|---------------------------------|
|-----------------------|---------------------------------|
|-----------------------|---------------------------------|
|-9--9--9-9-9-9-9-9-9-9-|-10--10--10-10-10-10-10-10-10-10-|
|-7--7--7-7-7-7-7-7-7-7-|-10--10--10-10-10-10-10-10-10-10-|
|-7--7--7-7-7-7-7-7-7-7-|-10--10--10-10-10-10-10-10-10-10-|


  G                       D5/A
  Q  E. S S S E S S S S   W
|-----------------------|------||
|-----------------------|-3----||
|-----------------------|-2----||
|-9--9--9-9-9-9-9-9-9-9-|-0----||
|-5--5--5-5-5-5-5-5-5-5-|-0----||
|-5--5--5-5-5-5-5-5-5-5-|------||


 Interlude
  A5
  Gtrs III, IV
  W
  |
  /

  Gtrs I, II
  S S S       S +S  S     S S  S  E S S S S S
|---------------------------------------------|
|---------------------------------------------|
|-------------0-(0)---------------0---------0-|
|-----7-------------7----------7----7-----7---|
|---0-----------------------0-----------0-----|
|-7-----------------------7-----------7-------|
|
| Gtr V
|       <
| |---------3----------|
| Q     Q             +Q      +H
|---------------------------------------------|
|---------------------------------------------|
|-------9b10==========(9)r====(9)-------------|
|---------------------------------------------|
|---------------------------------------------|
|---------------------------------------------|


   +W
    |
    /

    S S  S S +S  S   S S   S  E S  S S   S  S
|---------------------------------------------|
|---------------------------------------------|
|----------0-(0)--------------0----------0----|
|-------10------10\--------3----3-----------3-|
|-----0----------------0-------------0--------|
|-/10----------------3-------------3----------|
|
|             <                    <     >
|   Q         E      E    +Q       E    +E
|---------------------------------------------|
|-------------8s====10---(10)-----------------|
|---------------------------------10---(10)---|
|---------------------------------------------|
|---------------------------------------------|
|---------------------------------------------|


  A7
  S S S       S +S  S     S S  S  E S S S S S
|---------------------------------------------|
|---------------------------------------------|
|-------------0-(0)---------------0---------0-|
|-----7-------------7----------7----7-----7---|
|---0-----------------------0-----------0-----|
|-7-----------------------7-----------7-------|
|
|       <
| |---------3----------|
| Q     Q             +Q      +H
|---------------------------------------------|
|---------------------------------------------|
|-------9b10==========(9)r====(9)-------------|
|---------------------------------------------|
|---------------------------------------------|
|---------------------------------------------|


  C6                    Fadd9
    S  S  S  S  +S   S  S S  S  E          S   S  S S S
|--------------------------------------------------------||
|--------------------------------------------------------||
|------------0--(0)-------------0-------------------0----||
|--------10---------10\------3-------------3----------3--||
|------0------------------0-----------------------0------||
|-/10-------------------3----------------------3---------||
|
|   <        <          <
|   E.       S  +E      E   +E    +S      +S  +Q
|--------------------------------------------------------||
|--------------------------------------------------------||
|---7----------------------------------------------------||
|-----------10-(10)-----9---(9)---(9)b10==(9)r(9)--------||
|--------------------------------------------------------||
|--------------------------------------------------------||


 Verse 2
  A7
  Gtrs I, II
   S  S S S +S  S  S  S  S  E S S S S S
|---------------------------------------|
|---------------------------------------|
|---------0-(0)-------------0---------0-|
|-------7-------7--------7----7-----7---|
|-----0---------------0-----------0-----|
|--7---------------7------------7-------|
|
| Gtr V
|  <
|  Q.             +E    +H
|---------------------------------------|
|---------------------------------------|
|---------------------------------------|
|-[7]-------------(7)---(7)-------------|
|---------------------------------------|
|---------------------------------------|


  C6                  Fadd9
    S  S  S S +S   S  S S  S  E S S S S S
|------------------------------------------|
|------------------------------------------|
|-----------0-(0)-------------0-------0----|
|--------10-------10\------3----3-------3--|
|------0----------------0-----------0------|
|-/10-----------------3-----------3--------|
|
|                          >
|  +H                     +H
|------------------------------------------|
|------------------------------------------|
|------------------------------------------|
|--(7)--------------------(7)--------------|
|------------------------------------------|
|------------------------------------------|


    A7
    Gtrs I, II
    S S S S +S  S S S S E S S S S S
||----------------------------------|
||o---------------------------------|
||--------0-(0)---------0---------0-|
||------7-------7-----7---7-----7---|
||o---0-------------0---------0-----|
||--7-------------7---------7-------|
|
|   Gtrs III, IV
|   W
||----------------------------------|
||o---------------------------------|
||----------------------------------|
||----------------------------------|
||o---------------------------------|
||----------------------------------|


  C6                 Fadd9                 G
    S S  S S +S   S  S S S E S S S S S     W
|---------------------------------------||----------------||
|--------------------------------------o||-0--------------||
|----------0-(0)-----------0-------0----||-0--------------||
|-------10-------10\-----3---3-------3--||-0--------------||
|-----0----------------0---------0-----o||-x--------------||
|-/10----------------3---------3--------||-5--------------||
|
|   W                                      H    Q     Q
|---------------------------------------||----------------||
|--------------------------------------o||----------------||
|---------------------------------------||----------------||
|---------------------------------------||----------------||
|--------------------------------------o||------x\--------||
|---------------------------------------||------x\--/19\--||


   Chorus
    Asus2                   C5
    Gtrs III, IV
    Q  E. S S S E S S S S    Q   E.  S  S  S  E  S  S  S  S
||------------------------|---------------------------------|
||o-----------------------|---------------------------------|
||------------------------|---------------------------------|
||--9--9--9-9-9-9-9-9-9-9-|-10--10--10-10-10-10-10-10-10-10-|
||o-7--7--7-7-7-7-7-7-7-7-|-10--10--10-10-10-10-10-10-10-10-|
||--7--7--7-7-7-7-7-7-7-7-|-10--10--10-10-10-10-10-10-10-10-|


  G                       D5/A        C5    B5
  Q  E. S S S E S S S S   Q  E. S S S E +S  S    +S  +S
|-----------------------|------------------------------------||
|-----------------------|-3--3--3-3-3-----------------------o||
|-----------------------|-2--2--2-2-2------------------------||
|-9--9--9-9-9-9-9-9-9-9-|-0--0--0-0-0------------------------||
|-5--5--5-5-5-5-5-5-5-5-|-0--0--0-0-0-3-(3)-2b3==(2)r(2)----o||
|-5--5--5-5-5-5-5-5-5-5-|------------------------------------||


   Interlude
                                   1.
    N.C.        A5                  N.C.    D5E5C#5
    Gtrs III, IV
        PM|                             PM|
    S S S S S S E +S  E S S S S S   S S S S S S E +S  E S S S S S
||--------------------------------|--------------------------------||
||o-------------------------------|-------------------------------o||
||--------------------------------|--------------------------------||
||--------------7-(7)-7-7-7-7-7-7-|--------------------------------||
||o---------5p4-7-(7)-7-7-7-7-7-7-|---------5h7-4-(4)-4-4-4-4-4-4-o||
||--5h7-0-0-----7-(7)-7-7-7-7-7-7-|-5h7-0-0------------------------||
|
|   Gtr VI
|   W                               Q       S S E +S  E S S S S S
||--------------------------------|--------------------------------||
||o-------------------------------|-------------------------------o||
||--------------------------------|---------7h9-6-(6)-6-6-6-6-6-6--||
||--------------------------------|--------------------------------||
||o-------------------------------|-------------------------------o||
||--------------------------------|--------------------------------||


 2.
  N.C.    D5E5C#5         B5
      PM|     ~~~~~~
  S S S S S S E +S  E S S S S S
|---------------------------------||
|---------------------------------||
|---------------------------------||
|---------------------------------||
|---------5h7-4-(4)-4-4-4p2-2-2---||
|-5h7-0-0-------------------------||
|
| Q       S S E +S  E S S S S S
|---------------------------------||
|---------------------------------||
|---------7h9-6-(6)-6-6-6p4-4-4---||
|---------------------------------||
|---------------------------------||
|---------------------------------||


   Bridge
    F5          C/E              G           D/F#
    Gtrs III, IV
                           PM|
     Q  E. S  S  S  E  S S S S    Q   E. S S S E  S  S S  S
||-----------------------------|-------------------------------|
||o----------------------------|-------------------------------|
||-----------------------------|-------------------------------|
||---3--3--3--3--2--2--2-2-----|--9---9--9-9-7-7--7--7-0--0----|
||o--3--3--3--3--3--3--3-3-3-3-|--5---5--5-5-5-5--5--5-0--0----|
||---3--3--3--3--2--2--2-2-2-2-|--5---5--5-5-4-4--4--4-0--0----|
|
|   Gtr V
|    TP       TP TP    TP         TP              TP
|    H        S  E.    Q          H.              E.      T  T
||--17-------17----------------|-19--------------19------20h22-|
||o-------------20----20-------|-------------------------------|
||-----------------------------|-------------------------------|
||-----------------------------|-------------------------------|
||o----------------------------|-------------------------------|
||-----------------------------|-------------------------------|


  1.
  F5          C/E              C5            G
                         PM|
   Q  E. S  S  S  E  S S S S    Q   E.  S  S  S  E  S S S S
|----------------------------|-------------------------------||
|----------------------------|------------------------------o||
|----------------------------|-------------------------------||
|--3--3--3--3--2--2--2-2-----|-10--10--10-10--9--9--9-9-9-9--||
|--3--3--3--3--3--3--3-3-3-3-|-10--10--10-10--5--5--5-5-5-5-o||
|--3--3--3--3--2--2--2-2-2-2-|-10--10--10-10--5--5--5-5-5-5--||
|
|  TP       TP TP    TP         TP         TP TP    TP
|  H        S  E.    Q          H          S  E.    Q
|-17-------17----------------|-------------------------------||
|-------------20----20-------|-17---------17----------------o||
|----------------------------|---------------19----19--------||
|----------------------------|-------------------------------||
|----------------------------|------------------------------o||
|----------------------------|-------------------------------||


  2.
  F5          C/E              G
                         PM|
   Q  E. S  S  S  E  S S S S    W
|----------------------------|--------------------||
|----------------------------|--------------------||
|----------------------------|--------------------||
|--3--3--3--3--2--2--2-2-----|--9-----------------||
|--3--3--3--3--3--3--3-3-3-3-|--5-----------------||
|--3--3--3--3--2--2--2-2-2-2-|--5-----------------||
|
|  TP       TP TP    TP
|  H        S  E.    Q          H     +Q.    +E
|-17-------17----------------|--------------------||
|-------------20----20-------|--------------------||
|----------------------------|-19----(19)---(19)\-||
|----------------------------|--------------------||
|----------------------------|--------------------||
|----------------------------|--------------------||


 Interlude
  A7                                  C6                  Fadd9
  Gtrs I, II
  S S S S +S  S S S  S  E S S S S S     S  S  S S +S   S  S S S E S S S S S
|-----------------------------------|----------------------------------------|
|-----------------------------------|----------------------------------------|
|-------0-(0)-----------0---------0-|-----------0-(0)-----------0-------0----|
|-----7-------7------7----7-----7---|--------10-------10\-----3---3-------3--|
|---0-------------0-----------0-----|------0----------------0---------0------|
|-7-------------7-----------7-------|-/10-----------------3---------3--------|
|
| Gtrs III, IV
|                    >
| H                 +H                 +W
|-----------------------------------|----------------------------------------|
|-----------------------------------|----------------------------------------|
|-----------------------------------|----------------------------------------|
|-----------------------------------|----------------------------------------|
|-0-----------------(0)-------------|--(0)-----------------------------------|
|-----------------------------------|----------------------------------------|


  A7
  Gtrs I, II
  S S S S +S  S S S S E   S S S S S
|-----------------------------------|
|-----------------------------------|
|-------0-(0)---------0-----------0-|
|-----7-------7-----7-----7-----7---|
|---0-------------0-----------0-----|
|-7-------------7-----------7-------|
|
| Gtrs III, IV
| PM---------------------------------
| S S S S  S  S S S S S S S S S S S
|-----------------------------------|
|-----------------------------------|
|-----------------------------------|
|-----------------------------------|
|-7-7-7-7--7--7-7-7-7-7-7-7-7-7-7-7-|
|-7-7-7-7--7--7-7-7-7-7-7-7-7-7-7-7-|
|
| Gtr V
|          <
|          ~~~~~~~~~~~~~~~~~~~~~~~~~~
| Q        H.
|-----------------------------------|
|-----------------------------------|
|-----------------------------------|
|----------7------------------------|
|-----------------------------------|
|-----------------------------------|


  C6                    Fadd9
    S   S  S  S +S   S  S S S E   S  S  S S S
|---------------------------------------------||
|---------------------------------------------||
|-------------0-(0)-----------0-----------0---||
|---------10--------10\-----3-----3---------3-||
|-------0-----------------0-------------0-----||
|-/10-------------------3------------3--------||
|
|-----------------------------|
|   S   S  S  S  S   S  S S S S S S  S  S S S
|---------------------------------------------||
|---------------------------------------------||
|---------------------------------------------||
|-------------------------------3-3--3--3-3-3-||
|--10--10-10-10-10--10--3-3-3-3-3-3--3--3-3-3-||
|--10--10-10-10-10--10--3-3-3-3-3-3--3--3-3-3-||
|
|~~~~~~
|  +H.                               Q
|---------------------------------------------||
|---------------------------------------------||
|---------------------------------------------||
|--(7)------------------------------22\-------||
|-----------------------------------22\-------||
|-----------------------------------22\-------||


 Chorus
  Asus2                         C5
  Gtrs III, IV
  Q  E. S S    S  E  S S  S S     Q    E.  S  S  S  E  S  S  S  S
|-----------------------------|-----------------------------------|
|-----------------------------|-----------------------------------|
|-----------------------------|-----------------------------------|
|-9--9--9-9----9--9--9-9--9-9-|--10---10--10-10-10-10-10-10-10-10-|
|-7--7--7-7----7--7--7-7--7-7-|--10---10--10-10-10-10-10-10-10-10-|
|-7--7--7-7----7--7--7-7--7-7-|--10---10--10-10-10-10-10-10-10-10-|
|
| Gtr V
|                         ~~~~~~~~~~~
| Q  Q    E      +E  E    E      +H.                   Q
|-----------------------------|-----------------------------------|
|-----------------------------|-----------------------------------|
|-----------------------------|-----------------------------------|
|-7--9----9b10r==(9)-7--------|-----------------------------------|
|------------------------10---|-(10)------------------------------|
|-----------------------------|-----------------------------------|


  G                             D5/A          C5    B5
  Q  E. S S    S  E  S S  S S   Q  E. S  S  S E +S  S    +S  +S
|-----------------------------|----------------------------------|
|-----------------------------|-3--3--3--3--3--------------------|
|-----------------------------|-2--2--2--2--2--------------------|
|-9--9--9-9----9--9--9-9--9-9-|-0--0--0--0--0--------------------|
|-5--5--5-5----5--5--5-5--5-5-|-0--0--0--0--0-3-(3)-2b3==(2)r(2)-|
|-5--5--5-5----5--5--5-5--5-5-|----------------------------------|
|
| Q  Q    E      +E  E    E     H       +E    E +S  S    +S  +S
|-----------------------------|----------------------------------|
|-----------------------------|----------------------------------|
|-----------------------------|-7-------(7)---5-(5)-4b5==(4)r(4)-|
|-7--9----9b10r==(9)-7--------|----------------------------------|
|------------------------10---|----------------------------------|
|-----------------------------|----------------------------------|


  Asus2                         C5
  Gtrs III, IV
  Q  E. S S    S  E  S S  S S     Q    E.  S  S  S  E  S  S  S  S
|-----------------------------|-----------------------------------|
|-----------------------------|-----------------------------------|
|-----------------------------|-----------------------------------|
|-9--9--9-9----9--9--9-9--9-9-|--10---10--10-10-10-10-10-10-10-10-|
|-7--7--7-7----7--7--7-7--7-7-|--10---10--10-10-10-10-10-10-10-10-|
|-7--7--7-7----7--7--7-7--7-7-|--10---10--10-10-10-10-10-10-10-10-|
|
| Gtr V
|                         ~~~~~~~~~~~
| Q  Q    E      +E  E    E      +H.                   Q
|-----------------------------|-----------------------------------|
|-----------------------------|-----------------------------------|
|-----------------------------|-----------------------------------|
|-7--9----9b10r==(9)-7--------|-----------------------------------|
|------------------------10---|-(10)------------------------------|
|-----------------------------|-----------------------------------|
|
| Gtr VI
| W                               W
|-----------------------------|-----------------------------------|
|-----------------------------|-----------------------------------|
|-----------------------------|-----------------------------------|
|-----------------------------|-----------------------------------|
|-----------------------------|-----------------------------------|
|-----------------------------|-----------------------------------|


  G                             D5/A           C5    B5
  Q  E. S S    S  E  S S  S S   Q  E. S   S  S E +S   S    +S  +S
|-----------------------------|------------------------------------||
|-----------------------------|-3--3--3---3--3---------------------||
|-----------------------------|-2--2--2---2--2---------------------||
|-9--9--9-9----9--9--9-9--9-9-|-0--0--0---0--0---------------------||
|-5--5--5-5----5--5--5-5--5-5-|-0--0--0---0--0-3-(3)--2b3==(2)r(2)-||
|-5--5--5-5----5--5--5-5--5-5-|------------------------------------||
|
| Q  Q    E      +E  E    E     H        +E    E +S   S    +S  +S
|-----------------------------|------------------------------------||
|-----------------------------|------------------------------------||
|-----------------------------|-7--------(7)---5-(5)--4b5==(4)r(4)-||
|-7--9----9b10r==(9)-7--------|------------------------------------||
|------------------------10---|------------------------------------||
|-----------------------------|------------------------------------||
|
|                                         <
| W                             H         Q    S  S   S     S
|-----------------------------|----------------------20----20------||
|-----------------------------|----------------x--x----------------||
|-----------------------------|---------[19]---x--x----------------||
|-----------------------------|------------------------------------||
|-----------------------------|------------------------------------||
|-----------------------------|------------------------------------||


 Outro-Guitar Solo
  Asus2
  Gtrs III, IV
   Q             E.    S   S  S E      S           S       S     S
|---------------------------------------------------------------------|
|---------------------------------------------------------------------|
|---------------------------------------------------------------------|
|--9-------------9-----9---9--9-9------9-----------9-------9-----9----|
|--7-------------7-----7---7--7-7------7-----------7-------7-----7----|
|--7-------------7-----7---7--7-7------7-----------7-------7-----7----|
|
| Gtr VI
|                          ~~~~
|                                      |-------3-------|
|  E.    S      +E   E    +E.      S  +S       +S     +S   T  T  T  T
|-20b22-20b22==(20)-20r==(20)-----20-(20)b22==(20)r==(20)p17----------|
|------------------------------------------------------------20p17----|
|------------------------------------------------------------------17-|
|---------------------------------------------------------------------|
|---------------------------------------------------------------------|
|---------------------------------------------------------------------|


  C5
   Q                          E.         S  S           S       E     S  S  S  S
|---------------------------------------------------------------------------------|
|---------------------------------------------------------------------------------|
|---------------------------------------------------------------------------------|
|-10-------------------------10---------10-10----------10------10----10-10-10-10--|
|-10-------------------------10---------10-10----------10------10----10-10-10-10--|
|-10-------------------------10---------10-10----------10------10----10-10-10-10--|
|
|                        ~~~~~~~~~
|                                           |-------3-------|
|  T      +T   +S       +E   +S    S  S  S  S      +S      +S   S  S  S  S  S  S
|-19b20==(19)r(19)b20==(19)-(19)r-15-15s17----------------------------------------|
|---------------------------------------------------------------------------------|
|------------------------------------------19b21==(19)r===(19)p17-----------------|
|-----------------------------------------------------------------19-17----17-19--|
|-----------------------------------------------------------------------19--------|
|---------------------------------------------------------------------------------|


  G
   Q      E.     S   S  S  E  S    S S S
|----------------------------------------|
|----------------------------------------|
|----------------------------------------|
|--9------9------9---9--9--9--9----9-9-9-|
|--5------5------5---5--5--5--5----5-5-5-|
|--5------5------5---5--5--5--5----5-5-5-|
|
|     ~~~
|  S  E.  E  T T T T S  E.    E      S S
|------------------------------------0-0-|
|----------------------------------------|
|-17-----17\---------5-------------------|
|----19----------5h7---[7]---[5]b7-------|
|------------5h7-------------------------|
|----------------------------------------|


  D5/A                                       C5      B5
   Q                E.        S        S   S E   +S  S    +S  +S
|------------------------------------------------------------------|
|--3----------------3---------3--------3---3-----------------------|
|--2----------------2---------2--------2---2-----------------------|
|--0----------------0---------0--------0---0-----------------------|
|--0----------------0---------0--------0---0-3---(3)-2b3==(2)r(2)--|
|------------------------------------------------------------------|
|
|  S  S     +S   S  S  S  S   S       +S   S S S  S  S     S   S
|-12---------------------------------------------------------------|
|----14b15r(14)-13-------------------------------------------------|
|------------------14S12-------------------------------------------|
|------------------------14-[12]b13==(12)rS5-7-5-------------------|
|-------------------------------------------------5--5b6---3p==0---|
|------------------------------------------------------------------|


  Asus2
   Q   E. S  S  S E     S S   S     S
|----------------------------------------|
|----------------------------------------|
|----------------------------------------|
|--9---9--9--9--9-9-----9-9---9-----9----|
|--7---7--7--7--7-7-----7-7---7-----7----|
|--7---7--7--7--7-7-----7-7---7-----7----|
|
|  ~~~~~~~~~~~~~
|  H        +E    S.  T E     T  T  T  T
|----------------------------------------|
|----------------------------------------|
|----------------------------------------|
|-----------------------5-------10----10-|
|-[0]-------(0)------/7-----/10----12----|
|----------------------------------------|


  C5
   Q                      E.              S  S     S  E        S  S  S  S
|-------------------------------------------------------------------------|
|-------------------------------------------------------------------------|
|-------------------------------------------------------------------------|
|-10---------------------10--------------10-10----10-10-------10-10-10-10-|
|-10---------------------10--------------10-10----10-10-------10-10-10-10-|
|-10---------------------10--------------10-10----10-10-------10-10-10-10-|
|
|                                                              ~~
|  T  T  T  T  T T  T  T  T   T  T  T  E     T  T  E     S  a  Q
|-------------------------------------10----------12-------12s19----------|
|------------------10-12-10-----10-12-------13-15-------15----------------|
|--9-------------9-----------12-------------------------------------------|
|----12-10-10-12----------------------------------------------------------|
|-------------------------------------------------------------------------|
|-------------------------------------------------------------------------|


  G
   Q           E.        S       S   S  E       S S   S     S
|----------------------------------------------------------------|
|----------------------------------------------------------------|
|----------------------------------------------------------------|
|--9-----------9---------9-------9---9--9-------9-9---9-----9----|
|--5-----------5---------5-------5---5--5-------5-5---5-----5----|
|--5-----------5---------5-------5---5--5-------5-5---5-----5----|
|
|                                                     |---3----|
|  S  S  S  S  S   S  S  S      +S   S  S  +S   E    +S   S    S
|-17-19-20-19-17-----------------------------------------17---17-|
|-----------------17----------------20---------------------------|
|--------------------19-19b21==(19)----19r(19)-17---(17)---------|
|----------------------------------------------------------------|
|----------------------------------------------------------------|
|----------------------------------------------------------------|


  D5/A                                              C5              B5
   Q                 E.             S     S    S     E       +S     S       +S     +S
|-----------------------------------------------------------------------------------------|
|--3-----------------3--------------3-----3----3------------------------------------------|
|--2-----------------2--------------2-----2----2------------------------------------------|
|--0-----------------0--------------0-----0----0------------------------------------------|
|--0-----------------0--------------0-----0----0-----3-------(3)----2b3=====(2)r===(2)----|
|-----------------------------------------------------------------------------------------|
|
|  |------6-------|  |--------6--------|  |-------6--------|  |------------6------------|
|  S  S  S  S  S  S  S   S  S  S  S    S  S  S    S  S  S  S  S   S       S  S   S      S
|-22p17-17-17S15--------15---------------15-----------------------------------------------|
|----------------16-17-----16-17-16---17----17---15-17-15----15---------------------------|
|---------------------------------------------------------17-----17------14-17--14--------|
|--------------------------------------------------------------------------------------17-|
|-----------------------------------------------------------------------------------------|
|-----------------------------------------------------------------------------------------|


  A5
   W                   +W            +W
|-------------------|-------------|---------------------*|
|-------------------|-------------|---------------------*|
|-------------------|-------------|---------------------*|
|--7----------------|--(7)--------|--(7)----------------*|
|--7----------------|--(7)--------|--(7)----------------*|
|--7----------------|--(7)--------|--(7)----------------*|
|
|           ~~~~~~~~~~~~~~~~~~~~~~~~~~~~~
|  Q       +H.         +W            +H      +Q.    +E
|-15b17===(15)------|-(15)--------|-(15)----(15)r==(15)-*|
|-------------------|-------------|---------------------*|
|-------------------|-------------|---------------------*|
|-------------------|-------------|---------------------*|
|-------------------|-------------|---------------------*|
|-------------------|-------------|---------------------*|


Duration Legend
---------------
W - whole; H - half; Q - quarter; E - 8th; S - 16th; T - 32nd; X - 64th; a - acciaccatura
+ - note tied to previous; . - note dotted; .. - note double dotted
Uncapitalized letters represent notes that are staccato (1/2 duration)
Irregular groupings are notated above the duration line
Duration letters will always appear directly above the note/fret number it represents the
duration for.  Duration letters with no fret number below them represent rests.  Multi-
bar rests are notated in the form Wxn, where n is the number of bars to rest for.  Low
melody durations appear below the staff

Tablature Legend
----------------
 h   - hammer-on
 p   - pull-off
 b   - bend
 pb  - pre-bend
 r   - bend release (if no number after the r, then release immediately)
 /\  - slide into or out of (from/to "nowhere")
 s   - legato slide
 S   - shift slide
<n>  - natural harmonic
[n]  - artificial harmonic
n(n) - tapped harmonic
 ~   - vibrato
 tr  - trill
 T   - tap
 TP  - trem. picking
 PM  - palm muting
\n/  - tremolo bar dip; n = amount to dip
 \n  - tremolo bar down
 n/  - tremolo bar up
/n\  - tremolo bar inverted dip
 =   - hold bend; also acts as connecting device for hammers/pulls
 <>  - volume swell (louder/softer)
 x   - on rhythm slash represents muted slash
 o   - on rhythm slash represents single note slash

Misc Legend
-----------
 |  - bar
||  - double bar
||o - repeat start
o|| - repeat end
*|  - double bar (ending)
 :  - bar (freetime)
 $  - Segno
 &  - Coda
Tempo markers - <E/E./Q/Q./H/H.> = BPM(8/16=s8/s16), where s8 = swing 8ths, s16 = swing 16ths


***************************************************************************************
* Generated using Power Tab Editor by Brad Larsen - http://powertab.guitarnetwork.org *
***************************************************************************************
comments
We did not receive enough feedback on this tab! Please rate:
print report bad tab
1 2 3 4 5
I want to post or [tab]
guest
You may want to rate the tab now too:
select rating
Please do not post tabs as comments. Select "correction" instead!