Oops, an error
Loading. Please wait.

Life Must Go On Tab

ver3
ver3

Intro

Whole song

Interactive

More versions @911Tabs.com
3,901 views 15 this week
2 commentsread comments
1 2 3 4 5
excellent!
x 8
add to favorites launch autoscroll
font size
0
reset
Autoscroll
+/-
esc
set tempo
stop
Contributor
Difficulty
Tuning
intermediate
D A D F# A D
WARNING: You are trying to view
                                    content from Ultimate-Guitar.com
                                    in an unauthorized application,
                                    which is prohibited.

                                    Please use an official Ultimate
                                    Guitar Tabs application for iPhone,
                                    iPad or Android to access legitimate
                                    chords, guitar, bass, and drum tabs
                                    from Ultimate-Guitar.com database.

                                    Type "ultimate guitar tabs" in Apple
                                    App Store's or Android Market's
                                    search to find the application.
ALTER BRIDGE – Life Must Go On

Tuning – Open D5 (D A D A D D)

Guitar 1 = Mark Tremonti (lead)
Guitar 2 = Myles Kennedy (rhythm)

Song Order:
Intro
Pre-Verse
Verse #1
Chorus #1
Verse #2
Chorus #2
Bridge
Chorus #3
Outro


Intro (clean) – Finger Picked
Guitar 1
D---------------------------------------------------------------------------|
D---------2-2h4---4h5-----------------2p0---------------0----------------0--|
A---4h5------------------0---4-4h5-----------0--4-4h5---0----0---4-4h5---0--|
D-0-----0-------0-----------------------------------------------------------|
A----------------------4---4--------0---------------------------------------|
D------------------------------------------5---5------5----4---4-------4----|

D------------------------------------------------------------------------0--|
D---------2-2h4---4h5-----------------2p0---------------0----------------0--|
A---4h5------------------0---4-4h5-----------0--4-4h5---0----0---4-4h5------|
D-0-----0-------0-----------------------------------------------------------|
A----------------------4---4--------0---------------------------------------|
D------------------------------------------5---5------5----4---4-------4----|
-
D-----------0---------------------------------------------------------------|
D-------------0----------0-------5------------------------0~----------------|
A-----0---------4----------0--------5p4p0-----------------0~----------------|
D-----------------4----------0-------------5/7~-----/12---12~---------------|
A---2-----2-----------------------------------------------0~----------------|
D---------------------/5-------5--------------------------0~----------------|


Pre-Verse (dirty)
Guitars #1 & 2
D---------------------------------------------------------------------------|
D---------------------------------------------11-11-11-11-11-11-11--11\9-9--|
A----10--10-10—-10-9--12----7/9-9-9--9\7-5----x--x--x--x--x--x--x---x--x-x--|
D-00-x---x--x---x--x--x---0-x-x-x-x--x-x-x--0-11-11-11-11-11-11-11--11-9-9--|
A-00-10--10-10--10-9--12--0-7/9-9-9--9\7-5--0-0--0--0--0--0--0--0---0--0-0--|
D-00-0---0--0---0--0--0---0-0-0-0-0--0-0-0--0-------------------------------|

D---------------------------------------------------------------------------|
D---------------------------------------------11-11-11-11-11-11-11--11------|
A----10--10-10—-10-9--12----7/9-9-9--9\7-5----x--x--x--x--x--x--x---x-------|
D-00-x---x--x---x--x--x---0-x-x-x-x--x-x-x--0-11-11-11-11-11-11-11--11------|
A-00-10--10-10--10-9--12--0-7/9-9-9--9\7-5--0-0--0--0--0--0--0--0---0-------|
D-00-0---0--0---0--0--0---0-0-0-0-0--0-0-0--0-------------------------------|


Verse #1 (clean)
Guitar 1
D--0--0-0-0-0-0-0-0-0------------------------|
D--0--0-0-0-0-0-0-0-0-0-0-0-0-0-0---0-0-0----|
A--4--4-4-4-4-4-0-0-0-0-0-0-0-0-0---0-0-0----|
D--4--4-4-4-4-4-4-4---4-4-4-4-4-4/5-5-5-4----|
A--2--2-2-2-2-2-2-2---2-2-2-2-2-2---2-2-2----|
D---------------------2-2-2-2-2-2---2-2-2----|

D--0--0-0-0-0-0-0-0-0------------0-0-0-0---0-|
D--0--0-0-0-0-0-0-0-0-0-0-0-0-0--4/7-7-7---0-|
A--4--4-4-4-4-4-0-0-0-0-0-0-0-0--x---x-x---0-|
D--4--4-4-4-4-4-4-4---4-4-4-4-0--4/7-7-7-0---|
A--2--2-2-2-2-2-2-2---2-2-2-2-0--0-0-0-0-0---|
D---------------------2-2-2-2------------0---|

D--0--0-0-0-0-0-0-0-0-0-0-0-0-0-0-0-0-0-0-0-0-0-0-0-0--0--0-0-0-0-0-0---0-0-|
D--0--0-0-0-0-0-0-0-0-0-0-0-0-0-0-0-0-0-0-0-0-0-0-0-0--0--0-0-0-0-0-2/4-4-4-|
A--4--4-4-4-4-4-0-0-0-4-4-4-4-4-4-4-4-4-0-0-0-0-0-0-0--0--0-0-0-0-0-x---x-x-|
D--4--4-4-4-4-4-4-4---2-2-2-2-2-2-2-2-2-0-0-0-0-0-0-0--0--0-0-0-0-0-2/4-4-4-|
A--2--2-2-2-2-2-2-2---0-0-0-0-0-0-0-0-0---5-5-5-5-5-5-/7-\2-0-0-0-0-0---0-0-|
D-----------------------------------------5-5-5-5-5-5-/7-\2-0-0-0-0---------|

D--0--0-0-0-0-0-0-0-0------------------------|
D--0--0-0-0-0-0-0-0-0-0-0-0-0-0-0---0-0-0----|
A--4--4-4-4-4-4-0-0-0-0-0-0-0-0-0---0-0-0----|
D--4--4-4-4-4-4-4-4---4-4-4-4-4-4/5-5-5-4----|
A--2--2-2-2-2-2-2-2---2-2-2-2-2-2---2-2-2----|
D---------------------2-2-2-2-2-2---2-2-2----|

D--0--0-0-0-0-0-0-0-0------------0-0-0-0---0-|
D--0--0-0-0-0-0-0-0-0-0-0-0-0-0--4/7-7-7---0-|
A--4--4-4-4-4-4-0-0-0-0-0-0-0-0--x---x-x---0-|
D--4--4-4-4-4-4-4-4---4-4-4-4-0--4/7-7-7-0---|
A--2--2-2-2-2-2-2-2---2-2-2-2-0--0-0-0-0-0---|
D---------------------2-2-2-2------------0---|

D--0--0-0-0-0-0-0-0-0-0-0-0-0-0-0-0-0-0-0-0-0-0-0-0-0-0-0-0-0-0-0-0-0-0--|
D--0--0-0-0-0-0-0-0-0-0-0-0-0-0-0-0-0-0-0-0-0-0-0-0-0-0-0-0-0-0-0-0-0-0--|
A--4--4-4-4-4-4-0-0-0-4-4-4-4-4-4-4-4-4-0-0-0-0-0-0-0-0-0-0-0-0-0-0-0-0--|
D--4--4-4-4-4-4-4-4---2-2-2-2-2-2-2-2-2-0-0-0-0-0-0-0-0-0-0-0-0-0-0-0-0--|
A--2--2-2-2-2-2-2-2---0-0-0-0-0-0-0-0-0---5-5-5-5-5-5-5-5-5-5-5-5-5-5-5--|
D-----------------------------------------5-5-5-5-5-5-5-5-5-5-5-5-5-5-5--|


Verse #1 (dirty)
Guitar 2 (w/ flanger & compressor)
D------------------------------------------------------------|
D--9~~~~-----12--11---9/11\9~~~-----9~~~-----12--11---17b18--|
A------------------------------------------------------------|
D------------------------------------------------------------|
A------------------------------------------------------------|
D------------------------------------------------------------|


Chorus #1 (dirty)
Guitars #1 & 2
D--0--0-0-0-0-0-0-0--0--0-0-0-0-0-0-0-0-0---|
D--0--0-0-0-0-0-0-0--0--0-0-0-0-0-0-0-0-0---|
A--0--0-0-0-0-0-0-0--0--0-0-0-0-0-0-0-0-0---|
D--0--0-0-0-0-0-0-0--7--7-7-7-7-7-7-7-7-0---|
A--0--0-0-0-0-0-0-0--4--4-4-4-4-4-4-4-4-0---|
D--0--0-0-0-0-0-0-0--0--0-0-0-0-0-0-0-0-0---|

D--0--0-0-0-0-0-0-0-0-0--0--0-0-0-0-0-0-0-0-0---|
D--0--0-0-0-0-0-0-0-0-0--0--0-0-0-0-0-0-0-0-0---|
A--4--4-4-4-4-4-4-4-4-0--0--0-0-0-0-0-0-0-0-0---|
D--4--4-4-4-4-4-4-4-2-0--5--5-5-5-5-5-5-5-5-5---|
A--2--2-2-2-2-2-2-2-2-0--5--5-5-5-5-5-5-5-5-5---|
D--0--0-0-0-0-0-0-0-0-0--5--5-5-5-5-5-5-5-5-5---|

D-------------------------------------------0-0-0-0-0--0-0-0-0-0--0---|
D---------2-2h4---4h5-----------------2p0---0-0-0-0-0--0-0-0-0-0--0---|
A---4h5------------------0---4-4h5----------0-0-0-0-0--0-0-0-0-0--0---|
D-0-----0-------0---------------------------9-9-9-9-9--7-7-7-7-7--5---|
A----------------------4---4--------0-------9-9-9-9-9--7-7-7-7-7--5---|
D-------------------------------------------9-9-9-9-9--7-7-7-7-7--5---|


Verse #2 (clean)
Guitar #1
D--0--0-0-0-0-0-0-0-0------------------------|
D--0--0-0-0-0-0-0-0-0-0-0-0-0-0-0---0-0-0----|
A--4--4-4-4-4-4-0-0-0-0-0-0-0-0-0---0-0-0----|
D--4--4-4-4-4-4-4-4---4-4-4-4-4-4/5-5-5-4----|
A--2--2-2-2-2-2-2-2---2-2-2-2-2-2---2-2-2----|
D---------------------2-2-2-2-2-2---2-2-2----|

D--0--0-0-0-0-0-0-0-0------------0-0-0-0---0-|
D--0--0-0-0-0-0-0-0-0-0-0-0-0-0--4/7-7-7---0-|
A--4--4-4-4-4-4-0-0-0-0-0-0-0-0--x---x-x---0-|
D--4--4-4-4-4-4-4-4---4-4-4-4-0--4/7-7-7-0---|
A--2--2-2-2-2-2-2-2---2-2-2-2-0--0-0-0-0-0---|
D---------------------2-2-2-2------------0---|

D--0--0-0-0-0-0-0-0-0------------------------|
D--0--0-0-0-0-0-0-0-0-0-0-0-0-0-0---0-0-0----|
A--4--4-4-4-4-4-0-0-0-0-0-0-0-0-0---0-0-0----|
D--4--4-4-4-4-4-4-4---4-4-4-4-4-4/5-5-5-4----|
A--2--2-2-2-2-2-2-2---2-2-2-2-2-2---2-2-2----|
D---------------------2-2-2-2-2-2---2-2-2----|
D--0--0-0-0-0-0-0-0-0------------0-0-0-0---0-|
D--0--0-0-0-0-0-0-0-0-0-0-0-0-0--4/7-7-7---0-|
A--4--4-4-4-4-4-0-0-0-0-0-0-0-0--x---x-x---0-|
D--4--4-4-4-4-4-4-4---4-4-4-4-0--4/7-7-7-0---|
A--2--2-2-2-2-2-2-2---2-2-2-2-0--0-0-0-0-0---|
D---------------------2-2-2-2------------0---|

D--0--0-0-0-0-0-0-0-0-0-0-0-0-0-0-0-0-0-0-0-0-0-0-0-0-0-0-0-0-0-0-0-0-0--|
D--0--0-0-0-0-0-0-0-0-0-0-0-0-0-0-0-0-0-0-0-0-0-0-0-0-0-0-0-0-0-0-0-0-0--|
A--4--4-4-4-4-4-0-0-0-4-4-4-4-4-4-4-4-4-0-0-0-0-0-0-0-0-0-0-0-0-0-0-0-0--|
D--4--4-4-4-4-4-4-4---2-2-2-2-2-2-2-2-2-0-0-0-0-0-0-0-0-0-0-0-0-0-0-0-0--|
A--2--2-2-2-2-2-2-2---0-0-0-0-0-0-0-0-0---5-5-5-5-5-5-5-5-5-5-5-5-5-5-5--|
D-----------------------------------------5-5-5-5-5-5-5-5-5-5-5-5-5-5-5--|


Verse #2
Guitar 2 lead fill
D-------------------------------------------|
D-------------------------------------------|
A--4b5~~~~~---5/7--5/7--7/5---2~~~----------|
D-------------------------------------------|
A-------------------------------------------|
D-------------------------------------------|

Verse #2
Guitar #2 (w/ flanger & compressor)
D------------------------------------------------------------|
D--9~~~~-----12--11---9/11\9~~~-----9~~~-----12--11---17b18--|
A------------------------------------------------------------|
D------------------------------------------------------------|
A------------------------------------------------------------|
D------------------------------------------------------------|


Chorus #2  (dirty)
Guitars 1 & 2
D--0--0-0-0-0-0-0-0--0--0-0-0-0-0-0-0-0-0---|
D--0--0-0-0-0-0-0-0--0--0-0-0-0-0-0-0-0-0---|
A--0--0-0-0-0-0-0-0--0--0-0-0-0-0-0-0-0-0---|
D--0--0-0-0-0-0-0-0--7--7-7-7-7-7-7-7-7-0---|
A--0--0-0-0-0-0-0-0--4--4-4-4-4-4-4-4-4-0---|
D--0--0-0-0-0-0-0-0--0--0-0-0-0-0-0-0-0-0---|

D--0--0-0-0-0-0-0-0-0-0--0--0-0-0-0-0-0-0-0-0---|
D--0--0-0-0-0-0-0-0-0-0--0--0-0-0-0-0-0-0-0-0---|
A--4--4-4-4-4-4-4-4-4-0--0--0-0-0-0-0-0-0-0-0---|
D--4--4-4-4-4-4-4-4-2-0--5--5-5-5-5-5-5-5-5-5---|
A--2--2-2-2-2-2-2-2-2-0--5--5-5-5-5-5-5-5-5-5---|
D--0--0-0-0-0-0-0-0-0-0--5--5-5-5-5-5-5-5-5-5---|

D------------------------------------------0-0-0-0-0--0-0-0-0-0--0-0-0-0-0-0|
D---------2-2h4---4h5-----------------2p0--0-0-0-0-0--0-0-0-0-0--0-0-0-0-0-0|
A---4h5------------------0---4-4h5---------0-0-0-0-0--0-0-0-0-0--0-0-0-0-0-0|
D-0-----0-------0--------------------------9-9-9-9-9--7-7-7-7-7--5-5-5-5-5-5|
A----------------------4---4--------0------9-9-9-9-9--7-7-7-7-7--5-5-5-5-5-5|
D------------------------------------------9-9-9-9-9--7-7-7-7-7--5-5-5-5-5-5|

D--0-0-0-0-0--0-0-0-0-0--0-0-0-0-0-0-0-0-0---|
D--0-0-0-0-0--0-0-0-0-0--0-0-0-0-0-0-0-0-0---|
A--0-0-0-0-0--0-0-0-0-0--0-0-0-0-0-0-0-0-0---|
D--9-9-9-9-9--7-7-7-7-7--5-5-5-5-5-5-5-5-5---|
A--9-9-9-9-9--7-7-7-7-7--5-5-5-5-5-5-5-5-5---|
D--9-9-9-9-9--7-7-7-7-7--5-5-5-5-5-5-5-5-5---|


Bridge (dirty)
Guitars #1 & 2
D--0-0-0-0-----------0-0-0-0-0-0-0-0---0-0-0-0-0-0-0-0--0-0-0-0-0-0-0-0-0-0-|
D--0-0-0-0-----------0-0-0-0-0-0-0-0---0-0-0-0-0-0-0-0--0-0-0-0-0-0-0-0-0-0-|
A--0-0-0-0--x-x-x-x--0-0-0-0-0-0-0-0---0-0-0-0-0-0-0-0--0-0-0-0-0-0-0-0-0-0-|
D--2-2-2-2--x-x-x-x--5-5-5-5-5-5-5-5--/9-9-9-9-9-9-9-9--7-7-7-7-7-7-7-7-7-7-|
A--2-2-2-2--x-x-x-x--5-5-5-5-5-5-5-5--/9-9-9-9-9-9-9-9--x-x-x-x-x-x-x-x-x-x-|
D--2-2-2-2--x-x-x-x--5-5-5-5-5-5-5-5--/9-9-9-9-9-9-9-9--7-7-7-7-7-7-7-7-7-7-|

D--0-0-0-0-----------0-0-0-0-0-0-0-0---0-0-0-0-0-0-0-0--0-0-0-0-0-0-0-0-0-0-|
D--0-0-0-0-----------0-0-0-0-0-0-0-0---0-0-0-0-0-0-0-0--0-0-0-0-0-0-0-0-0-0-|
A--0-0-0-0--x-x-x-x--0-0-0-0-0-0-0-0---0-0-0-0-0-0-0-0--0-0-0-0-0-0-0-0-0-0-|
D--2-2-2-2--x-x-x-x--5-5-5-5-5-5-5-5--/9-9-9-9-9-9-9-9--7-7-7-7-7-7-7-7-7-7-|
A--2-2-2-2--x-x-x-x--5-5-5-5-5-5-5-5--/9-9-9-9-9-9-9-9--x-x-x-x-x-x-x-x-x-x-|
D--2-2-2-2--x-x-x-x--5-5-5-5-5-5-5-5--/9-9-9-9-9-9-9-9--7-7-7-7-7-7-7-7-7-7-|

Bridge (clean) – Finger Picked
Guitar #2
D--------------------------------------------------|
D----------2-2h4---4h5-----------------2p0---------|
A----4h5------------------0---4-4h5----------------|
D--0-----0-------0---------------------------------|
A-----------------------4---4--------0-------------|
D--------------------------------------------------|

D-------------0------------------------------------|
D---------------0----0----------0-----5p0-----0----|
A--------0-----------0-----0--------------------0--|
D----4---------------------------------------------|
A--2---2---2------2--------------------------------|
D-----------------------/5---5-----5-------5-------|

D--------------------------------------------------|
D----------2-2h4---4h5-----------------2p0---------|
A----4h5------------------0---4-4h5----------------|
D--0-----0-------0---------------------------------|
A-----------------------4---4--------0-------------|
D--------------------------------------------------|

Bridge (dirty)
Guitars #1 & 2
D--------------------------------------|
D--------------------------------------|
A--------------------------------------|
D-9-9-9-9-9-9-7-7-7-7-7-7-5-5-5-5-5-5--|
A-9-9-9-9-9-9-7-7-7-7-7-7-5-5-5-5-5-5--|
D—9-9-9-9-9-9-7-7-7-7-7-7-5-5-5-5-5-5--|
PM* * * * * * * * * * * * * * * * * *


Chorus #3  (dirty)
Guitars #1 & 2
D--0--0-0-0-0-0-0-0--0--0-0-0-0-0-0-0-0-0---|
D--0--0-0-0-0-0-0-0--0--0-0-0-0-0-0-0-0-0---|
A--0--0-0-0-0-0-0-0--0--0-0-0-0-0-0-0-0-0---|
D--0--0-0-0-0-0-0-0--7--7-7-7-7-7-7-7-7-0---|
A--0--0-0-0-0-0-0-0--4--4-4-4-4-4-4-4-4-0---|
D--0--0-0-0-0-0-0-0--0--0-0-0-0-0-0-0-0-0---|

D--0--0-0-0-0-0-0-0-0-0--0--0-0-0-0-0-0-0-0-0---|
D--0--0-0-0-0-0-0-0-0-0--0--0-0-0-0-0-0-0-0-0---|
A--4--4-4-4-4-4-4-4-4-0--0--0-0-0-0-0-0-0-0-0---|
D--4--4-4-4-4-4-4-4-2-0--5--5-5-5-5-5-5-5-5-5---|
A--2--2-2-2-2-2-2-2-2-0--5--5-5-5-5-5-5-5-5-5---|
D--0--0-0-0-0-0-0-0-0-0--5--5-5-5-5-5-5-5-5-5---|

D------------------------------------------0-0-0-0-0--0-0-0-0-0--0-0-0-0-0-0|
D---------2-2h4---4h5-----------------2p0--0-0-0-0-0--0-0-0-0-0--0-0-0-0-0-0|
A---4h5------------------0---4-4h5---------0-0-0-0-0--0-0-0-0-0--0-0-0-0-0-0|
D-0-----0-------0--------------------------9-9-9-9-9--7-7-7-7-7--5-5-5-5-5-5|
A----------------------4---4--------0------9-9-9-9-9--7-7-7-7-7--5-5-5-5-5-5|
D------------------------------------------9-9-9-9-9--7-7-7-7-7--5-5-5-5-5-5|

D--0-0-0-0-0--0-0-0-0-0----------------------------|
D--0-0-0-0-0--0-0-0-0-0----------------------------|
A--0-0-0-0-0--0-0-0-0-0----------------------------|
D--9-9-9-9-9--7-7-7-7-7--2-2-2-2-2-2-2-2-2-2-2-2---|
A--9-9-9-9-9--7-7-7-7-7--2-2-2-2-2-2-2-2-2-2-2-2---|
D--9-9-9-9-9--7-7-7-7-7--2-2-2-2-2-2-2-2-2-2-2-2---|
                       PM* * * * * * * * * * * *


Outro (dirty)
Guitars #1 & 2
D---------------------------------------------------------------------------|
D---------------------------------------------11-11-11-11-11-11-11--11\9-9--|
A----10--10-10—-10-9--12----7/9-9-9--9\7-5----x--x--x--x--x--x--x---x--x-x--|
D-00-x---x--x---x--x--x---0-x-x-x-x--x-x-x--0-11-11-11-11-11-11-11--11-9-9--|
A-00-10--10-10--10-9--12--0-7/9-9-9--9\7-5--0-0--0--0--0--0--0--0---0--0-0--|
D-00-0---0--0---0--0--0---0-0-0-0-0--0-0-0--0-------------------------------|

D---------------------------------------------------------------------------|
D---------------------------------------------11-11-11-11-11-11-11--11\9-9--|
A----10--10-10—-10-9--12----7/9-9-9--9\7-5----x--x--x--x--x--x--x---x--x-x--|
D-00-x---x--x---x--x--x---0-x-x-x-x--x-x-x--0-11-11-11-11-11-11-11--11-9-9--|
A-00-10--10-10--10-9--12--0-7/9-9-9--9\7-5--0-0--0--0--0--0--0--0---0--0-0--|
D-00-0---0--0---0--0--0---0-0-0-0-0--0-0-0--0-------------------------------|

D---------------------------------------------------------------------------|
D---------------------------------------------11-11-11-11-11-11-11--11\9-9--|
A----10--10-10—-10-9--12----7/9-9-9--9\7-5----x--x--x--x--x--x--x---x--x-x--|
D-00-x---x--x---x--x--x---0-x-x-x-x--x-x-x--0-11-11-11-11-11-11-11--11-9-9--|
A-00-10--10-10--10-9--12--0-7/9-9-9--9\7-5--0-0--0--0--0--0--0--0---0--0-0--|
D-00-0---0--0---0--0--0---0-0-0-0-0--0-0-0--0-------------------------------|

D---------------------------------------------------------------------------|
D---------------------------------------------11-11-11-11-11-11-11-11-11-11-|
A----10--10-10—-10-9--12----7/9-9-9--9\7-5----x--x--x--x--x--x--x--x--x--x--|
D-00-x---x--x---x--x--x---0-x-x-x-x--x-x-x--0-11-11-11-11-11-11-11-11-11-11-|
A-00-10--10-10--10-9--12--0-7/9-9-9--9\7-5--0-0--0--0--0--0--0--0--0--0--0--|
D-00-0---0--0---0--0--0---0-0-0-0-0--0-0-0--0-------------------------------|


Outro (Solo)
Guitar #1
D---------------------------------------------------------------------------|
D--------11-------12-11----11-------11------12-11----11--------11-12/16-19--|
A--10-10----12-10-------12------9-9----12-9-------12--------12--------------|
D--------------------------------------------------------14-----------------|
A---------------------------------------------------------------------------|
D---------------------------------------------------------------------------|

D-----------------------------------------------|
D--19—19\17-17-17—17\16—16b17r16--16------------|
A------------------------------------17/10------|
D-----------------------------------------------|
A-----------------------------------------------|
D-----------------------------------------------|

D---------------------------------------------------------------------------|
D--------11-------12-11----11-------11------15h16-15\12-11----/19-----------|
A--10-10----12-10-------12------9-9----12-9----------------12---------------|
D---------------------------------------------------------------------------|
A---------------------------------------------------------------------------|
D---------------------------------------------------------------------------|

D------------------------------------|
D—19-17-15---------------------------|
A----------19-17-16--16--------------|
D-----------------------14-----------|
A--------------------------14\16-----|
D------------------------------------|
comments
print report bad tab
2 comments total.
0 reply
Gibson1006 wrote on April 27 2012, 03:19 am

Perfect Tab!
Really Accurate.

0 reply
rocklee1431 wrote on February 6 2014, 07:36 pm

Spot on except the end of the solo.

D------------------------------------|
D?19-17-16---------------------------|
A----------19-17-16------------------|
D-------------------19-17-16---------|
A----------------------------14\16---|
D------------------------------------|

Great tab though, 5 stars.

I want to post or [tab]
guest
You may want to rate the tab now too:
select rating
Please do not post tabs as comments. Select "correction" instead!