Oops, an error
Loading. Please wait.

One Day Remains Tab

ver1
ver1

Intro

Album

Whole song

Interactive

More versions @911Tabs.com
18,008 views 15 this week
3 commentsread comments
1 2 3 4 5
accurate
x 13
Autoscroll
+/-
esc
set tempo
stop
Contributor
Hey! There's an official Ultimate Guitar app which is ideal
for learning songs when you're away from computer. Get the app
WARNING: You are trying to view
                                    content from Ultimate-Guitar.com
                                    in an unauthorized application,
                                    which is prohibited.

                                    Please use an official Ultimate
                                    Guitar Tabs application for iPhone,
                                    iPad or Android to access legitimate
                                    chords, guitar, bass, and drum tabs
                                    from Ultimate-Guitar.com database.

                                    Type "ultimate guitar tabs" in Apple
                                    App Store's or Android Market's
                                    search to find the application.
Band- Alter Bridge
Album- One Day Remains

1.Find The Real
2.One Day Remains
3.Open Your Eyes
4.Burn It Down
5.Metalingus
6.Broken Wings
7.In Loving Memory
8.Down To My Last
9.Watch Your Words
10.Shed My Skin
11.The End Is Here

I know I'm copying off of you guys, but I'm just helping you out by
putting all the songs together. GREAT ALBUM BY THE WAY!

1.Find The Real

Tuning (Lowest to Highest): Db Ab Db Gb Bb eb
Lead Guitar in standard half step

Intro
-----
eb|----------------------------------------------------------|
Bb|----------------------------------------------------------|
Gb|----------------------------------------------------------|
Db|--------------------------------------------------3*~~----|
Ab|-12\-0---5-4-3---------3-0-5--3-----------3---3-5---------|
Db|-12\-0-0-------7-6~~-0-3-0-5----3~~-0-3-5---5-------------|
                        PM.....                PM...

eb|----------------------------------------------------------|
Bb|----------------------------------------------------------|
Gb|----------------------------------------------------------|
Db|-----------------------------------------3-0-3------------|
Ab|-0---5-4-3---------3-0-5--3-----0-3-5-3--3-0-3------------|
Db|-0-0-------7-6~~-0-3-0-5----3~~-0-3-5-3--3-0-3--2*~~------|
                    PM.....        PM.....
Verse 0:15
-----
eb|----------------------------------------------------------|
Bb|----------------------------------------------------------|
Gb|----------------------------------------------------------|
Db|--------------------------------------------3~~-----------|
Ab|---5-4-3--------------3-------------3---3-5---------------|
Db|-0-------7-6~~--0-3-5---5-3~~-0-3-5---5-------------------|
      PM.....      PM.......     PM.......

eb|----------------------------------------------------------|
Bb|----------------------------------------------------------|
Gb|----------------------------------------------------------|
Db|----------------------------------------------------------|
Ab|---5-4-3--------------3-------------3---3-5--5~~----------|
Db|-0-------7-6~~--0-3-5---5-3~~-0-3-5---5-------------------|
      PM.....      PM.......     PM...........

eb|----------------------------------------------------------|
Bb|----------------------------------------------------------|
Gb|----------------------------------------------------------|
Db|-----------------------------------------------3*~~-------|
Ab|-0-0--5-4-3--------------3-------------3---3-5------------|
Db|-0-0--------7-6~~--0-3-5---5-3~~-0-3-5---5----------------|
                      PM.......     PM...........

eb|----------------------------------------------------------|
Bb|----------------------------------------------------------|
Gb|----------------------------------------------------------|
Db|----------------------------------------------------------|
Ab|---5-4-3--------------3-------------3---3-5--5*~~---------|
Db|-0-------7-6~~--0-3-5---5-3~~-0-3-5---5-------------------|
                   PM.......     PM...
Chorus 0:39
------
eb|----------------------------------------------------------|
Bb|--------------------------------------------------3--3-3--|
Gb|--------------------------5--5--5--5--------------2--2-2--|
Db|--8--8--8--8--3--3--3--3--5--5--5--5--5--5--5--5--0--0-0--|
Ab|--8--8--8--8--3--3--3--3--3--3--3--3--5--5--5--5--0--0-0--|
Db|--8--8--8--8--3--3--3--3--------------5--5--5--5--0--0-0--|

(Lead)
eb|----------------------------------------------------------|
Bb|-13-------------------------------------------------------|
Gb|-12^hb----10h12p10--------------10----12-10~~-------------|
Db|-------------------12~~---10/12----12---------------------|
Ab|----------------------------------------------------------|
Eb|------------------------0---------------------------------|


eb|----------------------------------------------------------|
Bb|--------------------------------------------------3--3-3--|
Gb|--------------------------5/7-7-7-7/9-------------2--2-2--|
Db|--8--8--8--8--3--3--3--3--------------5--5--5--5--0--0-0--|
Ab|--8--8--8--8--3--3--3--3--3/5-5-5-5/7-5--5--5--5--0--0-0--|
Db|--8--8--8--8--3--3--3--3--------------5--5--5--5--0--0-0--|

(Lead)
eb|---------------------------------------------10-13^hb-----|
Bb|-13------------------------------------10-13----13^hb-----|
Gb|-12^hb-12^hb-10h12p10------------10h12--------------------|
Db|----------------------12~~-10/12--------------------------|
Ab|----------------------------------------------------------|
Eb|----------------------------------------------------------|

Intro riff  1:05
----------
eb|----------------------------------------------------------|
Bb|----------------------------------------------------------|
Gb|----------------------------------------------------------|
Db|-----------------------------------------------3*~~-------|
Ab|--0---5-4-3---------3-0-5--3-----------3---3-5------------|
Db|--0-0-------7-6~~-0-3-0-5----3~~-0-3-5---5----------------|


eb|----------------------------------------------------------|
Bb|----------------------------------------------------------|
Gb|----------------------------------------------------------|
Db|----------------------------------------------------------|
Ab|-0---5-4-3---------3-0-5--3------------3---3-5--5*~~------|
Db|-0-0-------7-6~~-0-3-0-5----3~~--0-3-5---5----------------|
                            
Verse 2 1:17
-------
eb|----------------------------------------------------------|
Bb|----------------------------------------------------------|
Gb|----------------------------------------------------------|
Db|--------------------------------------------3~~-----------|
Ab|---5-4-3--------------3-------------3---3-5---------------|
Db|-0-------7-6~~--0-3-5---5-3~~-0-3-5---5-------------------|
      PM.....      PM.......     PM.......

eb|----------------------------------------------------------|
Bb|----------------------------------------------------------|
Gb|----------------------------------------------------------|
Db|----------------------------------------------------------|
Ab|---5-4-3--------------3-------------3---3-5-3-5~~---------|
Db|-0-------7-6~~--0-3-5---5-3~~-0-3-5---5-------------------|
      PM.....      PM.......     PM...........

eb|----------------------------------------------------------|
Bb|----------------------------------------------------------|
Gb|----------------------------------------------------------|
Db|-----------------------------------------------3*~~-------|
Ab|-0-0--5-4-3--------------3-------------3---3-5------------|
Db|-0-0--------7-6~~--0-3-5---5-3~~-0-3-5---5----------------|
                      PM.......     PM...........

eb|----------------------------------------------------------|
Bb|----------------------------------------------------------|
Gb|----------------------------------------------------------|
Db|----------------------------------------------------------|
Ab|---5-4-3--------------3-------------3---3-5--5*~~---------|
Db|-0-------7-6~~--0-3-5---5-3~~-0-3-5---5-------------------|
                   PM.......     PM...
Chorus #2 1:43
--------------
eb|----------------------------------------------------------|
Bb|--------------------------------------------------3--3-3--|
Gb|--------------------------5--5--5--5--------------2--2-2--|
Db|--8--8--8--8--3--3--3--3--5--5--5--5--5--5--5--5--0--0-0--|
Ab|--8--8--8--8--3--3--3--3--3--3--3--3--5--5--5--5--0--0-0--|
Db|--8--8--8--8--3--3--3--3--------------5--5--5--5--0--0-0--|

(Lead)
eb|----------------10h13p10----------------------------------------|
Bb|-----------10h13--------13-----------------13----------13-------|
Gb|------10h12---------------12~~10h12p10--10-12^hb-12r10-12^hb-12-|
Db|-10/12--------------------------------12------------------------|
Ab|----------------------------------------------------------------|
Eb|----------------------------------------------------------------|
                                              pre-bend

eb|----------------------------------------------------------|
Bb|--------------------------------------------------3--3-3--|
Gb|--------------------------5/7-7-7-7/9-------------2--2-2--|
Db|--8--8--8--8--3--3--3--3--------------5--5--5--5--0--0-0--|
Ab|--8--8--8--8--3--3--3--3--3/5-5-5-5/7-5--5--5--5--0--0-0--|
Db|--8--8--8--8--3--3--3--3--------------5--5--5--5--0--0-0--|

(Lead)
eb|----------------------------------------------------------|
Bb|----------------------------------------------------------|
Gb|----------------------------------------------------------|
Db|----------------------8-10--------------------------------|
Ab|-10^hb-8h10p8---------8-10-10^1/4-10^1/4-10^1/4-8h10p8----|
Eb|-------------10~~-8h10--------------------------------10~~|

Bridge 2:08 4x
------
eb|----------------------------------------------------------|
Bb|----------------------------------------------------------|
Gb|----------------------------------------------------------|
Db|----------------------------------------------------------|
Ab|-0----------0-------------3^---------------------------0^-|
Db|-0--7-6-5-3-0---7-6-5-3-0-3^--7-6-5-3-0-5---0--7-6-5-3-0^-|
                        whammy^1/4                        w^1/4
(Backing Rhythm for solo)
eb|----------------------------------------------------------|
Bb|----------------------------------------------------------|
Gb|----------------------------------------------------------|
Db|----7-6-5-3-0---7-6-5-3-0-3--7-6-5-3-0-5---0--7-6-5-3-0---|
Ab|-0--7-6-5-3-0---7-6-5-3-0-3--7-6-5-3-0-5---0--7-6-5-3-0---|
Db|-0--7-6-5-3-0---7-6-5-3-0-3--7-6-5-3-0-5---0--7-6-5-3-0---|

SOLO 2:47
----
eb|-13^fb----10----------------------------------------------|
Bb|-13^fb~~~-10~~10*~~---------------------------------------|
Gb|-------------------12^fb10h12p10--10------------10--12*~~-|
Db|--------------------------------12--12~~10h12p10--12------|
Ab|----------------------------------------------------------|
Eb|----------------------------------------------------------|


eb|----------------------------------------------------------|
Bb|------13-----10--------------13-----13----------13~~~~----|
Gb|-10h12--10h12--10h12-12-10h12--10h12--10h12-12------------|
Db|----------------------------------------------------------|
Ab|----------------------------------------------------------|
Eb|----------------------------------------------------------|


eb|---------------------------------------------13-15*~~-15\-|
Bb|-13~~~~-13~~~~-13~~~~-13~~~~-----------10-13--------------|
Gb|---------------------------------10-12--------------------|
Db|------------------------------12--------------------------|
Ab|----------------------------------------------------------|
Eb|----------------------------------------------------------|
                                 ^wah
eb|-18^fb18-15-----------13-15^fb15^fb13---------------------|
Bb|-----------17-15-13-15---------------15~~-13^fb-10h13p10--|
Gb|----------------------------------------------------------|
Db|----------------------------------------------------------|
Ab|----------------------------------------------------------|
Eb|----------------------------------------------------------|

eb|-----------------------10h13p10h13p10h13p10h1310-10h13p10-|
Bb|---10--------------10~------------------------------------|
Gb|-12--12~-----------10~------------------------------------|
Db|--------10h12p10-12---------------------------------------|
Ab|----------------------------------------------------------|
Eb|----------------------------------------------------------|

eb|-------10h13p10----10h13p10----10h13p10----13p10~~--------|
Bb|----------------13----------13----------13----------------|
Gb|----------------------------------------------------------|
Db|----------------------------------------------------------|
Ab|----------------------------------------------------------|
Eb|----------------------------------------------------------|

eb|-----131013101210121013101510121015101310121015101310-----|
Bb|----------------------------------------------------------|
Gb|----------------------------------------------------------|
Db|----------------------------------------------------------|
Ab|----------------------------------------------------------|
Eb|----------------------------------------------------------|

eb|-13-12-10----------------20^fb~~-20^fb~~-20^fb~~-20^fb~~--|
Bb|---------10^-12-11----------------------------------------|
Gb|-------------------12-10^---------------------------------|
Db|----------------------------------------------------------|
Ab|----------------------------------------------------------|
Eb|----------------------------------------------------------|
             ^whammy1/4   ^whammy1/4

eb|-20p17-17-19~~~~~~~~--|
Bb|----------------------|
Gb|----------------------|
Db|----------------------|END SOLO
Ab|----------------------|
Eb|----------------------|

Chorus #3 3:24
------
eb|----------------------------------------------------------|
Bb|--------------------------------------------------3--3-3--|
Gb|--------------------------5--5--5--5--------------2--2-2--|
Db|--8--8--8--8--3--3--3--3--5--5--5--5--5--5--5--5--0--0-0--|
Ab|--8--8--8--8--3--3--3--3--3--3--3--3--5--5--5--5--0--0-0--|
Db|--8--8--8--8--3--3--3--3--------------5--5--5--5--0--0-0--|
(Lead)
eb|------------------------------------------------------10--|
Bb|-10-10----10-10-13p10----10--------10-10--10h13p10-13-10--|
Gb|-10-10----10-10-12p10----10-12p10--10-10------------------|
Db|-------12-------------12---------12-----12----------------|
Ab|----------------------------------------------------------|
Eb|----------------------------------------------------------|


eb|----------------------------------------------------------|
Bb|--------------------------------------------------3--3-3--|
Gb|--------------------------5/7-7-7-7/9-------------2--2-2--|
Db|--8--8--8--8--3--3--3--3--------------5--5--5--5--0--0-0--|
Ab|--8--8--8--8--3--3--3--3--3/5-5-5-5/7-5--5--5--5--0--0-0--|
Db|--8--8--8--8--3--3--3--3--------------5--5--5--5--0--0-0--|
(Lead)
eb|----------------------------------------------------------|
Bb|-13---------------------------10-10-----------------------|
Gb|-12^fb-10h12p10---------------10-10----------10-12-10~~---|
Db|----------------12~~-10h12p10-------12-10h12--------------|
Ab|----------------------------------------------------------|
Eb|----------------------------------------------------------|


eb|----------------------------------------------------------|
Bb|--------------------------------------------------3--3-3--|
Gb|--------------------------5/7-7-7-7/9-------------2--2-2--|
Db|--8--8--8--8--3--3--3--3--------------5--5--5--5--0--0-0--|
Ab|--8--8--8--8--3--3--3--3--3/5-5-5-5/7-5--5--5--5--0--0-0--|
Db|--8--8--8--8--3--3--3--3--------------5--5--5--5--0--0-0--|
(Lead)
eb|----------------------------------------------------------|
Bb|----------------------------------------------------------|
Gb|----------------------------------------------------------|
Db|-------------------------8--------------------------------|
Ab|-10^hb-8h10p8------------8-8-------8-8h10p8----8----------|
Eb|-------------10~~-8h10p8-----8--10----------10------------|

eb|----------------------------------------------------------|
Bb|--------------------------------------------------3--3-3--|
Gb|--------------------------5--5--5--5--------------2--2-2--|
Db|--8--8--8--8--3--3--3--3--5--5--5--5--5--5--5--5--0--0-0--|
Ab|--8--8--8--8--3--3--3--3--3--3--3--3--5--5--5--5--0--0-0--|
Db|--8--8--8--8--3--3--3--3--------------5--5--5--5--0--0-0--|
(Lead)
eb|-------------------------------------------------------------15^fb~~-|
Bb|------13-----13-----13-----13-----13-13^fb-13^fb-13^fb-13^fb---------|
Gb|-12^fb--12^fb--12^fb--12^fb--12^fb-----------------------------------|
Db|---------------------------------------------------------------------|
Ab|---------------------------------------------------------------------|
Eb|---------------------------------------------------------------------|

Outro 4:14
-----
eb|----------------------------------------------------------|
Bb|----------------------------------------------------------|
Gb|----------------------------------------------------------|
Db|-----------------------------------------------3*~~-------|
Ab|--0---5-4-3---------3-0-5--3-----------3---3-5------------|
Db|--0-0-------7-6~~-0-3-0-5----3~~-0-3-5---5----------------|


eb|----------------------------------------------------------|
Bb|----------------------------------------------------------|
Gb|----------------------------------------------------------|
Db|-----------------------------------------3-0-3---------0--|
Ab|-0---5-4-3---------3-0-5--3-----0-3-5-3--3-0-3--5-3-2--0--|
Db|-0-0-------7-6~~-0-3-0-5----3~~-0-3-5-3--3-0-3--5-3-2--0--|
                                                   PM...

2.One Day Remains

Tuning: All strings down half step



Intro
gtr1
eb|--------------------|
bb|--------------------|
gb|--------------------|
Db|-------------*7-----|
Ab|-0-*12-*5--*7-------|
Eb|--------------------|

drums kick in
gtr1
eb|----------------------------------------------------------------|
bb|----------------------------------------------------------------|
gb|----------------------------------------------------------------|
Db|-*7~~~~~~~~~~~~~~~~~~~------------------------------------------|
Ab|-*5-----------------------------*7~~~~~~~~~~~~~~~~~~~~~~~~~~----|
Eb|--------------------------------*5------------------------------|

gtr1    PH at neck pickup
eb|----------------------------------------------------------------|
bb|----------------------------------------------------------------|
gb|-4---~~~~~~~~~~~~~~~~~~~~~~~~~~~~b5b4-~~~~~~~~~~~~~~~~~~~~------|
Db|----------------------------------------------------------------|
Ab|----------------------------------------------------------------|
Eb|----------------------------------------------------------------|

gtr1
eb|----------------------------------------*12~~~~~~~~~------------|
bb|----------------------------------------------------------------|
gb|----------------------------------------------------------------|
Db|-*7-~~~~~~~~~~~~~~~~~~~~~~--------------------------------------|
Ab|-*5-----------------------------*7-~~~~~~~~~~~~~~~~~~~~~--------|
Eb|--------------------------------*5-~~~~~~~~~~~~~~~~~~~~---------|

gtr1                                     PS
eb|----------------------------------------------------------------|
bb|-0--------------------------------------------------------------|
gb|-4--------------------------------------------------------------|
Db|--------------------------------------\\\\\\\\\\\\\\\\\\\\\\\\\\|
Ab|--------------------------------------\\\\\\\\\\\\\\\\\\\\\\\\\\|
Eb|----------------------------------------------------------------|

preverse 1
gtr1  wah..........................................................
eb|----------------------------------------------------------------|
bb|----------------------------------------------------------------|
gb|----------------------------------------------------------------|
Db|----------------------------------------------------------------|
Ab|12-0-9-0-0-0-0-0-7-0-0-0-7-0-7-6-----7-------7---6-------7---6-4|
Eb|---------------------------------4-4---4-4-4---4---4-4-4---4----|

gtr1....................(wah)......................................
eb|----------------------------------------------------------------|
bb|----------------------------------------------------------------|
gb|----------------------------------------------------------------|
Db|----------------------------------------------------------------|
Ab|-2-0-2-6-2-0-2-0-2-6-2-0-2-6-2-0-2-0-2-6-2-0-2-6-2-4-2-0-2-4-2-0|
Eb|----------------------------------------------------------------|

gtr1wah............................................................
eb|----------------------------------------------------------------|
bb|----------------------------------------------------------------|
gb|----------------------------------------------------------------|
Db|----------------------------------------------------------------|
Ab|12-0-9-0-0-0-0-0-7-0-0-0-7-0-7-6-----7-------7---6-------7---6-4|
Eb|---------------------------------4-4---4-4-4---4---4-4-4---4----|

gtr1....................(wah)......................................
eb|----------------------------------------------------------------|
bb|----------------------------------------------------------------|
gb|----------------------------------------------------------------|
Db|----------------------------------------------------------------|
Ab|-2-0-2-6-2-0-2-0-2-6-2-0-2-6-2-0-2-0-2-6-2-0-2-6-2-4-2-0-2~~~~~~|
Eb|----------------------------------------------------------------|


verse 1
gtr2PM..............................................................
eb|----------------------------------------------------------------|
bb|----------------------------------------------------------------|
gb|----------------------------------------------------------------|
Db|----------------------------------------------------------------|
Ab|12-0-9-0-0-0-0-0-7-0-0-0-7-0-7-6-----7-------7---6-------7---6-4|
Eb|---------------------------------4-4---4-4-4---4---4-4-4---4----|

gtr2PM.............................................................|
eb|----------------------------------------------------------------:|
bb|----------------------------------------------------------------:|
gb|----------------------------------------------------------------:|
Db|----------------------------------------------------------------:|
Ab|-2-0-2-6-2-0-2-0-2-6-2-0-2-6-2-0-2-0-2-6-2-0-2-6-2-4-2-0-2-4-2-0:|
Eb|----------------------------------------------------------------:|
play 3 times,then..

gtr2PM..............................................................
eb|----------------------------------------------------------------|
bb|----------------------------------------------------------------|
gb|----------------------------------------------------------------|
Db|----------------------------------------------------------------|
Ab|12-0-9-0-0-0-0-0-7-0-0-0-7-0-7-6-----7-------7---6-------7---6-4|
Eb|---------------------------------4-4---4-4-4---4---4-4-4---4----|

gtr2       PM..|       PM..|               PM..|       PM..|
eb|----------------------------------------------------------------|
bb|----------------------------------------------------------------|
gb|-4-----------4-----4-------------4-----------4------------------|
Db|-4-----4-----4-----4-------------4-----4-----4-----4------------|
Ab|-2-----2-2-2-2-----2-2-2-2h4p2p0-2-----2-2-2-2-----2-2-2-2h4p2p0|
Eb|-2-----2-2-2-2-----2-2-2---------2-----2-2-2-2-----2-2-2--------|


chorus   
gtr2       PM..|                           PM..|
eb|-0-------------------------------0------------------------------|
bb|-0-----------------------0-------0-----0-----0-----------0------|
gb|-4-----4-----4-----4-4-4-4-------4-----4-----4-----------4------|
Db|-2-----2-2-2-2-----2-2-2-2---2-2-4-----4-4-4-4-----4-4-4-4---4-4|
Ab|-0-----0-0-0-0-----0-0-0-0---0-0-2-----2-2-2-2-----2-2-2-2---2-2|
Eb|---------------------------------0-----0-0-0-0-----0-0-0-0---0-0|

gtr2       PM..|       PM..|               PM..|       PM..|
eb|----------------------------------------------------------------|
bb|----------------------------------------------------------------|
gb|-4-----------4-----4-------------4-----------4------------------|
Db|-4-----4-----4-----4-------------4-----4-----4-----4------------|
Ab|-2-----2-2-2-2-----2-2-2-2h4p2p0-2-----2-2-2-2-----2-2-2-2h4p2p0|
Eb|-2-----2-2-2-2-----2-2-2---------2-----2-2-2-2-----2-2-2--------|

gtr2       PM..|                           PM..|
eb|-0-------------------------------0------------------------------|
bb|-0-------------------------------0-----0-----0-----------0------|
gb|-4-----4-----4--------420--------4-----4-----4-----------4------|
Db|-2-----2-2-2-2-----------420-----4-----4-4-4-4-----4-4-4-4---4-4|
Ab|-0-----0-0-0-0---------------4-0-2-----2-2-2-2-----2-2-2-2---2-2|
Eb|---------------------------------0-----0-0-0-0-----0-0-0-0---0-0|

gtr2       PM..|       PM..|               PM..|       PM..|
eb|----------------------------------------------------------------|
bb|----------------------------------------------------------------|
gb|-4-----------4-----4-------------4-----------4------------------|
Db|-4-----4-----4-----4-------------4-----4-----4-----4------------|
Ab|-2-----2-2-2-2-----2-2-2-2h4p2p0-2-----2-2-2-2-----2-2-2-2h4p2p0|
Eb|-2-----2-2-2-2-----2-2-2---------2-----2-2-2-2-----2-2-2--------|

gtr2       PM..|                           PM..|
eb|-0-------------------------------0------------------------------|
bb|-0-----------------------0-------0-----0-----0-----------0------|
gb|-4-----4-----4-----4-4-4-4-------4-----4-----4-----------4------|
Db|-2-----2-2-2-2-----2-2-2-2---2-2-4-----4-4-4-4-----4-4-4-4---4-4|
Ab|-0-----0-0-0-0-----0-0-0-0---0-0-2-----2-2-2-2-----2-2-2-2---2-2|
Eb|---------------------------------0-----0-0-0-0-----0-0-0-0---0-0|

gtr2       PM..|       PM..|               PM..|       PM..|
eb|----------------------------------------------------------------|
bb|----------------------------------------------------------------|
gb|-4-----------4-----4-------------4-----------4------------------|
Db|-4-----4-----4-----4-------------4-----4-----4-----4------------|
Ab|-2-----2-2-2-2-----2-2-2-2h4p2p0-2-----2-2-2-2-----2-2-2-2h4p2p0|
Eb|-2-----2-2-2-2-----2-2-2---------2-----2-2-2-2-----2-2-2--------|

gtr2
eb|----------------------------------------------------------------|
bb|----------------------------------------------------------------|
gb|----------------------------------------------------------------|
Db|-11----11----11-------12----11-7--------------------------------|
Ab|-0-----0-----0--------0-----0--0-11----11----11-------12----11-7|
Eb|---------------------------------0-----0-----0--------0-----0--0|

gtr2       PM..|       PM..|               PM..|       PM..|
eb|----------------------------------------------------------------|
bb|----------------------------------------------------------------|
gb|-4-----------4-----4-------------4-----------4------------------|
Db|-4-----4-----4-----4-------------4-----4-----4-----4------------|
Ab|-2-----2-2-2-2-----2-2-2-2h4p2p0-2-----2-2-2-2-----2-2-2-2h4p2p0|
Eb|-2-----2-2-2-2-----2-2-2---------2-----2-2-2-2-----2-2-2--------|

preverse 2
gtr1
eb|-4h5-2h4h5-2h4h5-----5-----5------------------------------------|
bb|-----------------5h7---5h7---5\4-----5-----5-----4-------5---4p2|
gb|----------------------------------------------------------------|
Db|---------------------------------6-6---6-6---6-6---6-6-6--------|
Ab|----------------------------------------------------------------|
Eb|----------------------------------------------------------------|

gtr1
eb|----------------------------------------------------------------|
bb|-----0h4---------0h4-----0h4---------0h4---------0h4-----0h4----|
gb|-4p2-----4p2h4p2-----4p2-----4p2-4p2-----4p2h4p2-----4p2-----4p2|
Db|----------------------------------------------------------------|
Ab|----------------------------------------------------------------|
Eb|----------------------------------------------------------------|

gtr1
eb|-4h5-2h4h5-2h4h5-----5-----5------------------------------------|
bb|-----------------5h7---5h7---5\4-----5-----5-----4-------5---4p2|
gb|----------------------------------------------------------------|
Db|---------------------------------6-6---6-6---6-6---6-6-6--------|
Ab|----------------------------------------------------------------|
Eb|----------------------------------------------------------------|

gtr1
eb|----------------------------------------------------------------|
bb|-----0h4---------0h4-----0h4---------0h4---------0h4-----4-\----|
gb|-4p2-----4p2h4p2-----4p2-----4p2-4p2-----4p2h4p2-----4p2--------|
Db|----------------------------------------------------------------|
Ab|----------------------------------------------------------------|
Eb|----------------------------------------------------------------|


verse 2
gtr2PM..............................................................
eb|----------------------------------------------------------------|
bb|----------------------------------------------------------------|
gb|----------------------------------------------------------------|
Db|----------------------------------------------------------------|
Ab|12-0-9-0-0-0-0-0-7-0-0-0-7-0-7-6-----7-------7---6-------7---6-4|
Eb|---------------------------------4-4---4-4-4---4---4-4-4---4----|

gtr2PM.............................................................|
eb|----------------------------------------------------------------:|
bb|----------------------------------------------------------------:|
gb|----------------------------------------------------------------:|
Db|----------------------------------------------------------------:|
Ab|-2-0-2-6-2-0-2-0-2-6-2-0-2-6-2-0-2-0-2-6-2-0-2-6-2-4-2-0-2-4-2-0:|
Eb|----------------------------------------------------------------:|
play 3 times,then..

gtr2PM..............................................................
eb|----------------------------------------------------------------|
bb|----------------------------------------------------------------|
gb|----------------------------------------------------------------|
Db|----------------------------------------------------------------|
Ab|12-0-9-0-0-0-0-0-7-0-0-0-7-0-7-6-----7-------7---6-------7---6-4|
Eb|---------------------------------4-4---4-4-4---4---4-4-4---4----|

gtr2       PM..|       PM..|               PM..|       PM..|
eb|----------------------------------------------------------------|
bb|----------------------------------------------------------------|
gb|-4-----------4-----4-------------4-----------4------------------|
Db|-4-----4-----4-----4-------------4-----4-----4-----4------------|
Ab|-2-----2-2-2-2-----2-2-2-2h4p2p0-2-----2-2-2-2-----2-2-2-2h4p2p0|
Eb|-2-----2-2-2-2-----2-2-2---------2-----2-2-2-2-----2-2-2--------|


2nd chorus   
gtr2       PM..|                           PM..|
eb|-0-------------------------------0------------------------------|
bb|-0-----------------------0-------0-----0-----0-----------0------|
gb|-4-----4-----4-----4-4-4-4-------4-----4-----4-----------4------|
Db|-2-----2-2-2-2-----2-2-2-2---2-2-4-----4-4-4-4-----4-4-4-4---4-4|
Ab|-0-----0-0-0-0-----0-0-0-0---0-0-2-----2-2-2-2-----2-2-2-2---2-2|
Eb|---------------------------------0-----0-0-0-0-----0-0-0-0---0-0|

gtr2       PM..|       PM..|               PM..|       PM..|
eb|----------------------------------------------------------------|
bb|----------------------------------------------------------------|
gb|-4-----------4-----4-------------4-----------4------------------|
Db|-4-----4-----4-----4-------------4-----4-----4-----4------------|
Ab|-2-----2-2-2-2-----2-2-2-2h4p2p0-2-----2-2-2-2-----2-2-2-2h4p2p0|
Eb|-2-----2-2-2-2-----2-2-2---------2-----2-2-2-2-----2-2-2--------|

gtr2       PM..|                           PM..|
eb|-0-------------------------------0------------------------------|
bb|-0-------------------------------0-----0-----0-----------0------|
gb|-4-----4-----4--------420--------4-----4-----4-----------4------|
Db|-2-----2-2-2-2-----------420-----4-----4-4-4-4-----4-4-4-4---4-4|
Ab|-0-----0-0-0-0---------------4-0-2-----2-2-2-2-----2-2-2-2---2-2|
Eb|---------------------------------0-----0-0-0-0-----0-0-0-0---0-0|

gtr2       PM..|       PM..|               PM..|       PM..|
eb|----------------------------------------------------------------|
bb|----------------------------------------------------------------|
gb|-4-----------4-----4-------------4-----------4------------------|
Db|-4-----4-----4-----4-------------4-----4-----4-----4------------|
Ab|-2-----2-2-2-2-----2-2-2-2h4p2p0-2-----2-2-2-2-----2-2-2-2h4p2p0|
Eb|-2-----2-2-2-2-----2-2-2---------2-----2-2-2-2-----2-2-2--------|

gtr2       PM..|                           PM..|
eb|-0-------------------------------0------------------------------|
bb|-0-----------------------0-------0-----0-----0-----------0------|
gb|-4-----4-----4-----4-4-4-4-------4-----4-----4-----------4------|
Db|-2-----2-2-2-2-----2-2-2-2---2-2-4-----4-4-4-4-----4-4-4-4---4-4|
Ab|-0-----0-0-0-0-----0-0-0-0---0-0-2-----2-2-2-2-----2-2-2-2---2-2|
Eb|---------------------------------0-----0-0-0-0-----0-0-0-0---0-0|

gtr2       PM..|       PM..|               PM..|       PM..|
eb|----------------------------------------------------------------|
bb|----------------------------------------------------------------|
gb|-4-----------4-----4-------------4-----------4------------------|
Db|-4-----4-----4-----4-------------4-----4-----4-----4------------|
Ab|-2-----2-2-2-2-----2-2-2-2h4p2p0-2-----2-2-2-2-----2-2-2-2h4p2p0|
Eb|-2-----2-2-2-2-----2-2-2---------2-----2-2-2-2-----2-2-2--------|

gtr2
eb|----------------------------------------------------------------|
bb|----------------------------------------------------------------|
gb|----------------------------------------------------------------|
Db|-11----11----11-------12----11-7--------------------------------|
Ab|-0-----0-----0--------0-----0--0-11----11----11-------12----11-7|
Eb|---------------------------------0-----0-----0--------0-----0--0|

gtr2       PM..|       PM..|               PM..|       PM..|
eb|----------------------------------------------------------------|
bb|----------------------------------------------------------------|
gb|-4-----------4-----4-------------4-----------4------------------|
Db|-4-----4-----4-----4-------------4-----4-----4-----4------------|
Ab|-2-----2-2-2-2-----2-2-2-2h4p2p0-2-----2-2-2-2-----2-2-2-2h4p2p0|
Eb|-2-----2-2-2-2-----2-2-2---------2-----2-2-2-2-----2-2-2--------|

solo
gtr1
eb|------------------------------------------------------------------------|
bb|0h12h1612h1612p0h12------------12h14-0h12h1612h1612p0h12----------------|
gb|-------------------1413141314h16------------------------1413141314b16~~~|
Db|------------------------------------------------------------------------|
Ab|------------------------------------------------------------------------|
Eb|------------------------------------------------------------------------|
gtr2       PM..|                           PM..|
eb|-0-------------------------------0------------------------------|
bb|-0-----------------------0-------0-----0-----0-----------0------|
gb|-4-----4-----4-----4-4-4-4-------4-----4-----4-----------4------|
Db|-2-----2-2-2-2-----2-2-2-2---2-2-4-----4-4-4-4-----4-4-4-4---4-4|
Ab|-0-----0-0-0-0-----0-0-0-0---0-0-2-----2-2-2-2-----2-2-2-2---2-2|
Eb|---------------------------------0-----0-0-0-0-----0-0-0-0---0-0|


gtr1
eb|------------------------------------------------------------------------|
bb|0h12h1612h1612p0h12------------12h14-0h12h1612h1612p0h12----------------|
gb|-------------------1413141314h16------------------------1413141314b16~~~|
Db|------------------------------------------------------------------------|
Ab|------------------------------------------------------------------------|
Eb|------------------------------------------------------------------------|
gtr2       PM..|                           PM..|
eb|----------------------------------------------------------------|
bb|----------------------------------------------------------------|
gb|-4-----------4-----4-----4-------4-----------4-----------4------|
Db|-4-----4-----4-----4-----4---4-4-4-----4-----4-----4-----4---4-4|
Ab|-2-----2-2-2-2-----2-2-2-2---2-2-2-----2-2-2-2-----2-2-2-2---2-2|
Eb|-2-----2-2-2-2-----2-2-2-2---2-2-2-----2-2-2-2-----2-2-2-2---2-2|


gtr1
eb|--------------------------------141414-----------------------------------|
bb|0h12h1612h1612p0h12h1712h1712p012----12p0h12h1712h1712p0h12h1612h1612p0h12
gb|-------------------------------------------------------------------------|
Db|-------------------------------------------------------------------------|
Ab|-------------------------------------------------------------------------|
Eb|-------------------------------------------------------------------------|
gtr2       PM..|                           PM..|
eb|-0-------------------------------0------------------------------|
bb|-0-----------------------0-------0-----0-----0-----------0------|
gb|-4-----4-----4-----4-4-4-4-------4-----4-----4-----------4------|
Db|-2-----2-2-2-2-----2-2-2-2---2-2-4-----4-4-4-4-----4-4-4-4---4-4|
Ab|-0-----0-0-0-0-----0-0-0-0---0-0-2-----2-2-2-2-----2-2-2-2---2-2|
Eb|---------------------------------0-----0-0-0-0-----0-0-0-0---0-0|


gtr1
eb|---1419141914--1419141914--141914--1419141914-------------------|
bb|-16----------16----------16------16----------16h19--16-19~~~~~~~|
gb|----------------------------------------------------------------|
Db|----------------------------------------------------------------|
Ab|----------------------------------------------------------------|
Eb|----------------------------------------------------------------|
gtr2       PM..|                           PM..|
eb|----------------------------------------------------------------|
bb|----------------------------------------------------------------|
gb|-4-----------4-----4-----4-------4-----------4-----------4------|
Db|-4-----4-----4-----4-----4---4-4-4-----4-----4-----4-----4---4-4|
Ab|-2-----2-2-2-2-----2-2-2-2---2-2-2-----2-2-2-2-----2-2-2-2---2-2|
Eb|-2-----2-2-2-2-----2-2-2-2---2-2-2-----2-2-2-2-----2-2-2-2---2-2|


bridge    how it feels.....
gtr1                                  wah...(for gtr 1).............
eb|----------------------------------------------------------------|
bb|-19~~~~~~~~~~~~~~~~~~-16-------~~~~~~~~~~~~~~~~~~~~~~~~~~~~~~---|
gb|----------------------------------------------------------------|
Db|----------------------------------------------------------------|
Ab|----------------------------------------------------------------|
Eb|----------------------------------------------------------------|
gtr2
eb|----------------------------------------------------------------|
bb|----------------------------------------------------------------|
gb|----------------------------------------------------------------|
Db|-11----11----11-------12----11-7--------------------------------|
Ab|-0-----0-----0--------0-----0--0-11----11----11-------12----11-7|
Eb|---------------------------------0-----0-----0--------0-----0--0|


gtr1..(wah for gtr1)..............................................
eb|----------------------------------------------------------------|
bb|(16)~~~~~~~~~~~~~~~~~~~~~~~~~~~~~~~~~~~~~~~~~~~~~~~~~~~~~~~~~~--|
gb|----------------------------------------------------------------|
Db|----------------------------------------------------------------|
Ab|----------------------------------------------------------------|
Eb|----------------------------------------------------------------|
gtr2       PM..|       PM..|               PM..|       PM..|
eb|----------------------------------------------------------------|
bb|----------------------------------------------------------------|
gb|-4-----------4-----4-------------4-----------4------------------|
Db|-4-----4-----4-----4-------------4-----4-----4-----4------------|
Ab|-2-----2-2-2-2-----2-2-2-2h4p2p0-2-----2-2-2-2-----2-2-2-2h4p2p0|
Eb|-2-----2-2-2-2-----2-2-2---------2-----2-2-2-2-----2-2-2--------|


gtr2
eb|----------------------------------------------------------------|
bb|----------------------------------------------------------------|
gb|----------------------------------------------------------------|
Db|-11----11----11-------12----11-7--------------------------------|
Ab|-0-----0-----0--------0-----0--0-11----11----11-------12----11-7|
Eb|---------------------------------0-----0-----0--------0-----0--0|

gtr2       PM..|       PM..|               PM..|       PM..|
eb|----------------------------------------------------------------|
bb|----------------------------------------------------------------|
gb|-4-----------4-----4-------------4-----------4------------------|
Db|-4-----4-----4-----4-------------4-----4-----4-----4------------|
Ab|-2-----2-2-2-2-----2-2-2-2h4p2p0-2-----2-2-2-2-----2-2-2-2h4p2p0|
Eb|-2-----2-2-2-2-----2-2-2---------2-----2-2-2-2-----2-2-2--------|

gtr2
eb|----------------------------------------------------------------|
bb|----------------------10~~~~~~~---------------------------------|
gb|----------------------------------------------------------------|
Db|-11----11----11-------------11-7--------------------------------|
Ab|-0-----0-----0--------------0--0-11----11----11-------12----11-7|
Eb|---------------------------------0-----0-----0--------0-----0--0|

gtr2       PM..|       PM..|               PM..|       PM..|
eb|----------------------------------------------------------------|
bb|----------------------------------------------------------------|
gb|-4-----------4-----4-------------4-----------4------------------|
Db|-4-----4-----4-----4-------------4-----4-----4-----4------------|
Ab|-2-----2-2-2-2-----2-2-2-2h4p2p0-2-----2-2-2-2-----2-2-2-2h4p2p0|
Eb|-2-----2-2-2-2-----2-2-2---------2-----2-2-2-2-----2-2-2--------|

gtr2
eb|----------------------------------------------------------------|
bb|----------------------------------------------------------------|
gb|----------------------------------------------------------------|
Db|-11----11----11-------12----11-7--------------------------------|
Ab|-0-----0-----0--------0-----0--0-11----11----11-------12----11-7|
Eb|---------------------------------0-----0-----0--------0-----0--0|

gtr2       PM..|       PM..|               PM..|       PM..|
eb|----------------------------------------------------------------|
bb|----------------------------------------------------------------|
gb|-4-----------4-----4-------------4-----------4------------------|
Db|-4-----4-----4-----4-------------4-----4-----4-----4------------|
Ab|-2-----2-2-2-2-----2-2-2-2h4p2p0-2-----2-2-2-2-----2-2-2-2h4p2p0|
Eb|-2-----2-2-2-2-----2-2-2---------2-----2-2-2-2-----2-2-2--------|


last chorus   
gtr2       PM..|                           PM..|
eb|-0-------------------------------0------------------------------|
bb|-0-----------------------0-------0-----0-----0-----------0------|
gb|-4-----4-----4-----4-4-4-4-------4-----4-----4-----------4------|
Db|-2-----2-2-2-2-----2-2-2-2---2-2-4-----4-4-4-4-----4-4-4-4---4-4|
Ab|-0-----0-0-0-0-----0-0-0-0---0-0-2-----2-2-2-2-----2-2-2-2---2-2|
Eb|---------------------------------0-----0-0-0-0-----0-0-0-0---0-0|

gtr2       PM..|       PM..|               PM..|       PM..|
eb|----------------------------------------------------------------|
bb|----------------------------------------------------------------|
gb|-4-----------4-----4-------------4-----------4------------------|
Db|-4-----4-----4-----4-------------4-----4-----4-----4------------|
Ab|-2-----2-2-2-2-----2-2-2-2h4p2p0-2-----2-2-2-2-----2-2-2-2h4p2p0|
Eb|-2-----2-2-2-2-----2-2-2---------2-----2-2-2-2-----2-2-2--------|
  
gtr2       PM..|                           PM..|
eb|-0-------------------------------0------------------------------|
bb|-0-----------------------0-------0-----0-----0-----------0------|
gb|-4-----4-----4-----4-4-4-4-------4-----4-----4-----------4------|
Db|-2-----2-2-2-2-----2-2-2-2---2-2-4-----4-4-4-4-----4-4-4-4---4-4|
Ab|-0-----0-0-0-0-----0-0-0-0---0-0-2-----2-2-2-2-----2-2-2-2---2-2|
Eb|---------------------------------0-----0-0-0-0-----0-0-0-0---0-0|

gtr2       PM..|       PM..|               PM..|       PM..|
eb|----------------------------------------------------------------|
bb|----------------------------------------------------------------|
gb|-4-----------4-----4-------------4-----------4------------------|
Db|-4-----4-----4-----4-------------4-----4-----4-----4------------|
Ab|-2-----2-2-2-2-----2-2-2-2h4p2p0-2-----2-2-2-2-----2-2-2-2h4p2p0|
Eb|-2-----2-2-2-2-----2-2-2---------2-----2-2-2-2-----2-2-2--------|

gtr2       PM..|                           PM..|
eb|-0-------------------------------0------------------------------|
bb|-0-------------------------------0-----0-----0-----------0------|
gb|-4-----4-----4--------420--------4-----4-----4-----------4------|
Db|-2-----2-2-2-2-----------420-----4-----4-4-4-4-----4-4-4-4---4-4|
Ab|-0-----0-0-0-0---------------4-0-2-----2-2-2-2-----2-2-2-2---2-2|
Eb|---------------------------------0-----0-0-0-0-----0-0-0-0---0-0|

gtr2       PM..|       PM..|               PM..|       PM..|
eb|----------------------------------------------------------------|
bb|----------------------------------------------------------------|
gb|-4-----------4-----4-------------4-----------4------------------|
Db|-4-----4-----4-----4-------------4-----4-----4-----4------------|
Ab|-2-----2-2-2-2-----2-2-2-2h4p2p0-2-----2-2-2-2-----2-2-2-2h4p2p0|
Eb|-2-----2-2-2-2-----2-2-2---------2-----2-2-2-2-----2-2-2--------|

gtr2
eb|----------------------------------------------------------------|
bb|----------------------------------------------------------------|
gb|----------------------------------------------------------------|
Db|-11----11----11-------12----11-7--------------------------------|
Ab|-0-----0-----0--------0-----0--0-11----11----11-------12----11-7|
Eb|---------------------------------0-----0-----0--------0-----0--0|

gtr2       PM..|       PM..|               PM..|       PM..|
eb|----------------------------------------------------------------|
bb|----------------------------------------------------------------|
gb|-4-----------4-----4-------------4-----------4------------------|
Db|-4-----4-----4-----4-------------4-----4-----4-----4------------|
Ab|-2-----2-2-2-2-----2-2-2-2h4p2p0-2-----2-2-2-2-----2-2-2-2h4p2p0|
Eb|-2-----2-2-2-2-----2-2-2---------2-----2-2-2-2-----2-2-2--------|

gtr2
eb|----------------------------------------------------------------|
bb|-------------------------10~~~~~~~------------------------------|
gb|----------------------------------------------------------------|    
Db|-11----11----11-------12----------------------------------------|
Ab|-0-----0-----0--------0----------11----11----11-------12----11-7|
Eb|---------------------------------0-----0-----0--------0-----0--0|

gtr2
eb|-----------------------|
bb|-0---------------------|
gb|-4---------------------|
Db|-4---------------------|
Ab|-2---------------------|
Eb|-2---------------------|

3.Open Your Eyes(This is my own tab!)

Tuning- DADadd

Intro
|--------------------------------------------------------------|
|--------------------------------------------------------------|
|--------------------------------------------------------------|
|-7/9-9-7-0-5-5--7/9-9-7-9-0-5-5--7/9-9-7-0-5-5--5/7-7-4-4-5-5-|
|-7/9-9-7-0-5-5--7/9-9-7-9-0-5-5--7/9-9-7-0-5-5--5/7-7-4-4-5-5-|
|-7/9-9-7-0-5-5--7/9-9-7-9-0-5-5--7/9-9-7-0-5-5--5/7-7-4-4-5-5-|

Verse
|-0---5------------------------------|
|-0---5------------------------------|
|-4---5------------------------------|
|-4---5-5--7/9-9-7-0-5--7/9-9-7-0-12-|
|-2---5-5--7/9-9-7-0-5--7/9-9-7-0-12-|
|-----5-5--7/9-9-7-0-5--7/9-9-7-0-12-|

|-0--5---------------------------------|
|-0--5---------------------------------|
|-4--5---------------------------------|
|-4--5-5--7/9-9-7-0-12-12--5/7-7-4-5-5-|
|-2--5-5--7/9-9-7-0-12-12--5/7-7-4-5-5-|
|----5-5--7/9-9-7-0-12-12--5/7-7-4-5-5-|

|-0--5---------0--5-|
|-0--5---5/7\5-0--5-|
|-4--5---------4--5-|
|-4--5-0-------4--5-|
|-2--5-0-------2--5-|
|----5-0----------5-|

Chorus(Not exact strumming pattern)
|----------------|----------|
|----------------|----------|
|-7-7------------|-7-7------|
|-7-7--9-5--7--5-|-7-7--9-5-|
|-5-4--9-5--7--5-|-5-4--9-5-|
|------9-5--7--5-|------9-5-|

Clean Bridge
|-0--------------------0---------|
|-0-0----------2h4p2-0-2-2h4p2-0-|
|-4---4----------------0---------|
|-4-----4-5-0----------0---------|
|-2-------5-0----------0---------|
|---------5-0----------0---------|

Distorted Bridge
|-0--5----------------------|
|-0--5----------------------|
|-4--5----------------------|
|-4--5--0-0-5-5--0-0-5-5----|
|-2--5--0-0-5-5--0-0-5-5----|
|----5--0-0-5-5--0-0-5-5-5/-|

Solo Ryhthm
|-0--5------------|
|-0--5------------|
|-4--5--7-7-------|
|-4--5--7-7--9--5-|
|-2--5--5-4--9--5-|
|----5-------9--5-|

Solo Build-up
|-12b12v--14b14v-|
|----------------|
|----------------|
|----------------|
|----------------|
|----------------|

SOLO
|-16b-16-17-19-21p16h17p16\17-|
|-----------------------------|
|-----------------------------|
|-----------------------------|
|-----------------------------|
|-----------------------------|

|-----------------------------------------------------------------------|
|-19-16--------16-19-16--------16-17-16--------16-17-16--------16-17-16-|
|------17-16-17--------17-16-17--------17-16-17--------17-16-17---------|
|-----------------------------------------------------------------------|
|-----------------------------------------------------------------------|
|-----------------------------------------------------------------------|

|-----------------------------------------------------------------------------------|
|---16-19-16--16-21-16--------16-21-16--------14-16-14--------14-16-14--------14-16-|
|-17--------17--------17-16-17--------17-16-17--------17-16-17--------17-16-17------|
|-----------------------------------------------------------------------------------|
|-----------------------------------------------------------------------------------|
|-----------------------------------------------------------------------------------|

|-------------------------19------------------------------|
|-16-17-19-17-16-17--16-17--17-16--16-17-19-17-16--16-17v-|
|------------------19------------19--------------19-------|
|---------------------------------------------------------|
|---------------------------------------------------------|
|---------------------------------------------------------|

|--------------------------------------------------------|
|-19-17-16-----------------------------------------------|
|---------17-19-17-16--------19-17-16--------------------|
|--------------------19-17-16--------19-17-16-19-17------|
|--------------------------------------------------19-17-|
|--------------------------------------------------------|

|-----------------------------------------------------22b-22b-22b\-|
|-------------------------19---------------------------------------|
|--------------19-17-16-17--16-17-19-17--16-17-19-16v--------------|
|------19-16-17------------------------19--------------------------|
|-16-17------------------------------------------------------------|
|------------------------------------------------------------------|

Solo Ending/Whammy Bar Pedal
|-19v-----19v---|
|---------------|
|---------------|...he ends it with a pick slide
|---------------|
|---------------|
|---------------|

4.Burn It Down

Tuning: a (half step down) and (drop D)

Chords in appearance in the song:

B: x355xx
D: x688xx
A: x133xx
C: x466xx
F#:5554xx

Intro Chords: (Clean)
   
  [B B B B] [D D D] [A A A A] [C C C]   [F#F#F#F#F#F#F#F#F#F#F#F#F#]                       
e|-x-x-x-x-x-x-x-x-x-x-x-x-x-x-x-x-x-x-x-x-x-x-x-x-x-x-x-x-x-x-x-x|
B|-x-x-x-x-x-x-x-x-x-x-x-x-x-x-x-x-x-x-x-x-x-x-x-x-x-x-x-x-x-x-x-x|
G|-5-5-5-5-/-8-8-8-\-3-3-3-3-/-6-6-6-x-x-4-4-4-4-4-4-4-4-4-4-4-4-4| 
D|-5-5-5-5-/-8-8-8-\-3-3-3-3-/-6-6-6-x-x-5-5-5-5-5-5-5-5-5-5-5-5-5|
A|-3-3-3-3-/-6-6-6-\-1-1-1-1-/-4-4-4-x-x-5-5-5-5-5-5-5-5-5-5-5-5-5|
D|-x-x-x-x-x-x-x-x-x-x-x-x-x-x-x-x-x-x-x-5-5-5-5-5-5-5-5-5-5-5-5-5|

   OOOooooooooooooooooooooooooooooooooooooooooooooooooooooooooooo!
e|-x-x-x-x-x-x-x-x-x-x-x-x-x-x-x-x-x-x-x-x-x-x-x-x-x-x-x-x-x-x-x-x|
B|-x-x-x-x-x-x-x-x-x-x-x-x-x-x-x-x-x-x-x-x-x-x-x-x-x-x-x-x-x-x-x-x|
G|-5-5-5-5-/-8-8-8-\-3-3-3-3-/-6-6-6-x-x-4-4-4-4-4-4-4-4-4-4-4-4-4| 
D|-5-5-5-5-/-8-8-8-\-3-3-3-3-/-6-6-6-x-x-5-5-5-5-5-5-5-5-5-5-5-5-5|
A|-3-3-3-3-/-6-6-6-\-1-1-1-1-/-4-4-4-x-x-5-5-5-5-5-5-5-5-5-5-5-5-5|
D|-x-x-x-x-x-x-x-x-x-x-x-x-x-x-x-x-x-x-x-5-5-5-5-5-5-5-5-5-5-5-5-5|

Verse 1: (Clean)
Strumming pattern on verse is correct.

e|-x-x-x-x-x-x-x-x-x-x-x-x-x-x-x-x-x-x-x-x-x-x-x-x-x-x-x-x-x-x-x-x|
B|-x-x-x-x-x-x-x-x-x-x-x-x-x-x-x-x-x-x-x-x-x-x-x-x-x-x-x-x-x-x-x-x|
G|-5-5-5-5-/-8-8-8-\-3-3-3-3-/-6-6-6-x-x-4-4-4-4-4-4-4-4-4-4-4-4-4| 
D|-5-5-5-5-/-8-8-8-\-3-3-3-3-/-6-6-6-x-x-5-5-5-5-5-5-5-5-5-5-5-5-5|
A|-3-3-3-3-/-6-6-6-\-1-1-1-1-/-4-4-4-x-x-5-5-5-5-5-5-5-5-5-5-5-5-5|
D|-x-x-x-x-x-x-x-x-x-x-x-x-x-x-x-x-x-x-x-5-5-5-5-5-5-5-5-5-5-5-5-5|

e|-x-x-x-x-x-x-x-x-x-x-x-x-x-x-x-x-x-x-x-x-x-x-x-x-x-x-x-x-x-x-x-x|
B|-x-x-x-x-x-x-x-x-x-x-x-x-x-x-x-x-x-x-x-x-x-x-x-x-x-x-x-x-x-x-x-x|
G|-5-5-5-5-/-8-8-8-\-3-3-3-3-/-6-6-6-x-x-4-4-4-4-4-4-4-4-4-4-4-4-4| 
D|-5-5-5-5-/-8-8-8-\-3-3-3-3-/-6-6-6-x-x-5-5-5-5-5-5-5-5-5-5-5-5-5|
A|-3-3-3-3-/-6-6-6-\-1-1-1-1-/-4-4-4-x-x-5-5-5-5-5-5-5-5-5-5-5-5-5|
D|-x-x-x-x-x-x-x-x-x-x-x-x-x-x-x-x-x-x-x-5-5-5-5-5-5-5-5-5-5-5-5-5|

e|-x-x-x-x-x-x-x-x-x-x-x-x-x-x-x-x-x-x-x-x-x-x-x-x-x-x-x-x-x-x-x-x|
B|-x-x-x-x-x-x-x-x-x-x-x-x-x-x-x-x-x-x-x-x-x-x-x-x-x-x-x-x-x-x-x-x|
G|-5-5-5-5-/-8-8-8-\-3-3-3-3-/-6-6-6-x-x-4-4-4-4-4-4-4-4-4-4-4-4-4| 
D|-5-5-5-5-/-8-8-8-\-3-3-3-3-/-6-6-6-x-x-5-5-5-5-5-5-5-5-5-5-5-5-5|
A|-3-3-3-3-/-6-6-6-\-1-1-1-1-/-4-4-4-x-x-5-5-5-5-5-5-5-5-5-5-5-5-5|
D|-x-x-x-x-x-x-x-x-x-x-x-x-x-x-x-x-x-x-x-5-5-5-5-5-5-5-5-5-5-5-5-5|

e|-x-x-x-x-x-x-x-x-x-x-x-x-x-x-x-x-x-x-x-x-x-x-x-x-x-x-x-x-x-x-x-x|
B|-x-x-x-x-x-x-x-x-x-x-x-x-x-x-x-x-x-x-x-x-x-x-x-x-x-x-x-x-x-x-x-x|
G|-5-5-5-5-/-8-8-8-\-3-3-3-3-/-6-6-6-x-x-4-4-4-4-4-4-4-4-4-4-4-4-4| 
D|-5-5-5-5-/-8-8-8-\-3-3-3-3-/-6-6-6-x-x-5-5-5-5-5-5-5-5-5-5-5-5-5|
A|-3-3-3-3-/-6-6-6-\-1-1-1-1-/-4-4-4-x-x-5-5-5-5-5-5-5-5-5-5-5-5-5|
D|-x-x-x-x-x-x-x-x-x-x-x-x-x-x-x-x-x-x-x-5-5-5-5-5-5-5-5-5-5-5-5-5|

Chorus: (Clean)

Not sure of the strumming patterns, but these are the chords in order.

e|-x-x-x-x-x-x-x-x-x-x-x-x-x-x-x-x-x-x|
B|-x-x-x-x-x-x-x-x-x-x-x-x-x-x-x-x-x-x|
G|-5-5-5-5-5-/-8-8-8-8-8-\-3-3-3-3-3-/| 
D|-5-5-5-5-5-/-8-8-8-8-8-\-3-3-3-3-3-/|
A|-3-3-3-3-3-/-6-6-6-6-6-\-1-1-1-1-1-/|
D|-x-x-x-x-x-x-x-x-x-x-x-x-x-x-x-x-x-x|


e|-x-x-x-x-x-x-x-x-x-x-x-x-x-x-x-x-x-x|
B|-x-x-x-x-x-x-x-x-x-x-x-x-x-x-x-x-x-x|
G|-5-5-5-5-5-/-8-8-8-8-8-\-3-3-3-3-3-/| 
D|-5-5-5-5-5-/-8-8-8-8-8-\-3-3-3-3-3-/|
A|-3-3-3-3-3-/-6-6-6-6-6-\-1-1-1-1-1-/|
D|-x-x-x-x-x-x-x-x-x-x-x-x-x-x-x-x-x-x|


Verse 2:
Strumming pattern on verse is correct.

e|-x-x-x-x-x-x-x-x-x-x-x-x-x-x-x-x-x-x-x-x-x-x-x-x-x-x-x-x-x-x-x-x|
B|-x-x-x-x-x-x-x-x-x-x-x-x-x-x-x-x-x-x-x-x-x-x-x-x-x-x-x-x-x-x-x-x|
G|-5-5-5-5-/-8-8-8-\-3-3-3-3-/-6-6-6-x-x-4-4-4-4-4-4-4-4-4-4-4-4-4| 
D|-5-5-5-5-/-8-8-8-\-3-3-3-3-/-6-6-6-x-x-5-5-5-5-5-5-5-5-5-5-5-5-5|
A|-3-3-3-3-/-6-6-6-\-1-1-1-1-/-4-4-4-x-x-5-5-5-5-5-5-5-5-5-5-5-5-5|
D|-x-x-x-x-x-x-x-x-x-x-x-x-x-x-x-x-x-x-x-5-5-5-5-5-5-5-5-5-5-5-5-5|

e|-x-x-x-x-x-x-x-x-x-x-x-x-x-x-x-x-x-x-x-x-x-x-x-x-x-x-x-x-x-x-x-x|
B|-x-x-x-x-x-x-x-x-x-x-x-x-x-x-x-x-x-x-x-x-x-x-x-x-x-x-x-x-x-x-x-x|
G|-5-5-5-5-/-8-8-8-\-3-3-3-3-/-6-6-6-x-x-4-4-4-4-4-4-4-4-4-4-4-4-4| 
D|-5-5-5-5-/-8-8-8-\-3-3-3-3-/-6-6-6-x-x-5-5-5-5-5-5-5-5-5-5-5-5-5|
A|-3-3-3-3-/-6-6-6-\-1-1-1-1-/-4-4-4-x-x-5-5-5-5-5-5-5-5-5-5-5-5-5|
D|-x-x-x-x-x-x-x-x-x-x-x-x-x-x-x-x-x-x-x-5-5-5-5-5-5-5-5-5-5-5-5-5|

e|-x-x-x-x-x-x-x-x-x-x-x-x-x-x-x-x-x-x-x-x-x-x-x-x-x-x-x-x-x-x-x-x|
B|-x-x-x-x-x-x-x-x-x-x-x-x-x-x-x-x-x-x-x-x-x-x-x-x-x-x-x-x-x-x-x-x|
G|-5-5-5-5-/-8-8-8-\-3-3-3-3-/-6-6-6-x-x-4-4-4-4-4-4-4-4-4-4-4-4-4| 
D|-5-5-5-5-/-8-8-8-\-3-3-3-3-/-6-6-6-x-x-5-5-5-5-5-5-5-5-5-5-5-5-5|
A|-3-3-3-3-/-6-6-6-\-1-1-1-1-/-4-4-4-x-x-5-5-5-5-5-5-5-5-5-5-5-5-5|
D|-x-x-x-x-x-x-x-x-x-x-x-x-x-x-x-x-x-x-x-5-5-5-5-5-5-5-5-5-5-5-5-5|

e|-x-x-x-x-x-x-x-x-x-x-x-x-x-x-x-x-x-x-x-x-x-x-x-x-x-x-x-x-x-x-x-x|
B|-x-x-x-x-x-x-x-x-x-x-x-x-x-x-x-x-x-x-x-x-x-x-x-x-x-x-x-x-x-x-x-x|
G|-5-5-5-5-/-8-8-8-\-3-3-3-3-/-6-6-6-x-x-4-4-4-4-4-4-4-4-4-4-4-4-4| 
D|-5-5-5-5-/-8-8-8-\-3-3-3-3-/-6-6-6-x-x-5-5-5-5-5-5-5-5-5-5-5-5-5|
A|-3-3-3-3-/-6-6-6-\-1-1-1-1-/-4-4-4-x-x-5-5-5-5-5-5-5-5-5-5-5-5-5|
D|-x-x-x-x-x-x-x-x-x-x-x-x-x-x-x-x-x-x-x-5-5-5-5-5-5-5-5-5-5-5-5-5|

Chorus 2:


e|-x-x-x-x-x-x-x-x-x-x-x-x-x-x-x-x-x-x|
B|-x-x-x-x-x-x-x-x-x-x-x-x-x-x-x-x-x-x|
G|-5-5-5-5-5-/-8-8-8-8-8-\-3-3-3-3-3-/| 
D|-5-5-5-5-5-/-8-8-8-8-8-\-3-3-3-3-3-/|
A|-3-3-3-3-3-/-6-6-6-6-6-\-1-1-1-1-1-/|
D|-x-x-x-x-x-x-x-x-x-x-x-x-x-x-x-x-x-x|

e|-x-x-x-x-x-x-x-x-x-x-x-x-x-x-x-x-x-x|
B|-x-x-x-x-x-x-x-x-x-x-x-x-x-x-x-x-x-x|
G|-5-5-5-5-5-/-8-8-8-8-8-\-3-3-3-3-3-/| 
D|-5-5-5-5-5-/-8-8-8-8-8-\-3-3-3-3-3-/|
A|-3-3-3-3-3-/-6-6-6-6-6-\-1-1-1-1-1-/|
D|-x-x-x-x-x-x-x-x-x-x-x-x-x-x-x-x-x-x|

e|-x-x-x-x-x-x-x-x-x-x-x-x-x-x-x-x-x-x|
B|-x-x-x-x-x-x-x-x-x-x-x-x-x-x-x-x-x-x|
G|-5-5-5-5-5-/-8-8-8-8-8-\-3-3-3-3-3-/| 
D|-5-5-5-5-5-/-8-8-8-8-8-\-3-3-3-3-3-/|
A|-3-3-3-3-3-/-6-6-6-6-6-\-1-1-1-1-1-/|
D|-x-x-x-x-x-x-x-x-x-x-x-x-x-x-x-x-x-x|

e|-x-x-x-x-x-x-x-x-x-x-x-x-x-x-x-x-x-x|
B|-x-x-x-x-x-x-x-x-x-x-x-x-x-x-x-x-x-x|
G|-5-5-5-5-5-/-8-8-8-8-8-\-3-3-3-3-3-/| 
D|-5-5-5-5-5-/-8-8-8-8-8-\-3-3-3-3-3-/|
A|-3-3-3-3-3-/-6-6-6-6-6-\-1-1-1-1-1-/|
D|-x-x-x-x-x-x-x-x-x-x-x-x-x-x-x-x-x-x|


Bridge:
Not sure on the strumming patterns but chords are in right order

e|-1-1-1-/-3-3-3-/-x-x-x-\|
B|-1-1-1-/-3-3-3-/-x-x-x-\|
G|-3-3-3-/-5-5-5-/-7-7-7-\|
D|-3-3-3-/-5-5-5-/-7-7-7-\|
A|-1-1-1-/-3-3-3-/-5-5-5-\|
D|-1-1-1-/-3-3-3-/-x-x-x-\|

e|-1-1-1-/-3-3-3-/-x-x-x-\|
B|-1-1-1-/-3-3-3-/-x-x-x-\|
G|-3-3-3-/-5-5-5-/-7-7-7-\|
D|-3-3-3-/-5-5-5-/-7-7-7-\|
A|-1-1-1-/-3-3-3-/-5-5-5-\|
D|-1-1-1-/-3-3-3-/-x-x-x-\|

e|-1-1-1-/-3-3-3-/-x-x-x-\|
B|-1-1-1-/-3-3-3-/-x-x-x-\|
G|-3-3-3-/-5-5-5-/-7-7-7-\|
D|-3-3-3-/-5-5-5-/-7-7-7-\|
A|-1-1-1-/-3-3-3-/-5-5-5-\|
D|-1-1-1-/-3-3-3-/-x-x-x-\|

e|-1-1-1-/-3-3-3-/-x-x-x-\|
B|-1-1-1-/-3-3-3-/-x-x-x-\|
G|-3-3-3-/-5-5-5-/-7-7-7-\|
D|-3-3-3-/-5-5-5-/-7-7-7-\|
A|-1-1-1-/-3-3-3-/-5-5-5-\|
D|-1-1-1-/-3-3-3-/-x-x-x-\|

5.Metalingus

Tuning: D tuning lowered half step (Db Ab Db Gb Bb Eb)

Intro                               2x

e|------------------------------------|
B|------------------------------------|
G|------------------------------------|
D|--5p2p0h2-0-0--5p2p0h2-0-0--5p0h2p0-|
A|--5p2p0h2-0-0--5p2p0h2-0-0--5p0h2p0-|
D|--5p2p0h2-0-0--5p2p0h2-0-0--5p0h2p0-|


e|------------------------------------|
B|------------------------------------|
G|------------------------------------|
D|--5p2p0h2-0-0--5p2p0h2-0-0--3-3-3-3-|
A|--5p2p0h2-0-0--5p2p0h2-0-0--3-3-3-3-|
D|--5p2p0h2-0-0--5p2p0h2-0-0--3-3-3-3-|


Verse                         [PM]         [PM]       2x
e|-------------------------------------------------------|
B|-------------------------------------------------------|
G|-------------------------------------------------------|
D|--5-555-7-0-00-3-333-----------------------------------|
A|--5-555-7-0-00-3-333-----------------------------------|
D|--5-555-7-0-00-3-333-5p2p0h2-0-0--5p2p0h2-0-0--5p0h2p0-|


On third time substitute
e|------------------------------------|
B|------------------------------------|
G|------------------------------------|
D|------------------------------------|
A|------------------------------------|
D|--5p2p0h2-0-0--5p2p0h2-0-0--5p0h2p0-|

e|------------------------------------|
B|------------------------------------|
G|------------------------------------|
D|------------------------------------|
A|------------------------------------|
D|--5p2p0h2-0-0--5p2p0h2-0-0--3-3-3-3-|

e|------------------------------------|
B|------------------------------------|
G|------------------------------------|
D|------------------------------------|
A|------------------------------------|
D|--5p2p0h2-0-0--5p2p0h2-0-0--5p0h2p0-|

e|------------------------------------|
B|------------------------------------|
G|------------------------------------|
D|--5p2p0h2------5p2p0h2------5p0h2p0-|
A|--5p2p0h2------5p2p0h2------5p0h2p0-|
D|--5p2p0h2------5p2p0h2------5p0h2p0-|

Chorus                      [slide to each octave]  2x
e|---------------------------------------------------|
B|---------------------------------------------------|
G|------------------------7\5--5--7--11--12--14------|
D|--0h2-0h2-22-2-4-5-55-0-0-0------------------------|
A|--0h2-0h2-22-2-4-5-55-0-5\3--3--5---9--10--12------|
D|--0h2-0h2-22-2-4-5-55-0-0-00000000000000000000-0-0-|


Intro Riff

Verse 3x

Chorus 4x

Bridge                                      [p.m. throughout]
e|------------------------------------------------------------|
B|------------------------------------------------------------|
G|------------------------------------------------------------|
D|-------------------------------------------------------3333-|
A|------------------------------------------------------------|
D|--0h2-2-2h3p2--2p0h2-2-2h5p2--2p0h2-2-2h3p2--2p0h2-2-2------|

e|-------------------------------------------------------------------------|
B|-------------------------------------------------------------------------|
G|-------------------------------------------------------------------------|
D|-------------------------------------------------------------------------|
A|---------------------------------------------------------5p0-3p0-2p0-----|
D|--2p0h2-2-2h3p2--2p0h2-2-2h5p2--2p0h2-2-2h3p2--2p0h2-2-2-------------5-3-|

e|------------------------------------------------------------|
B|------------------------------------------------------------|
G|------------------------------------------------------------|
D|-------------------------------------------------------3333-|
A|------------------------------------------------------------|
D|--0h2-2-2h3p2--2p0h2-2-2h5p2--2p0h2-2-2h3p2--2p0h2-2-2------|

e|-------------------------------------------------------------------------|
B|-------------------------------------------------------------------------|
G|-------------------------------------------------------------------------|
D|-------------------------------------------------------------------------|
A|-------------------------------------------------------7h8p7p5p0-3p0-----|
D|--0h2-2-2h3p2--2p0h2-2-2h5p2--2p0h2-2-2h3p2--2p0h2-2-2---------------5-3-|


***
e|------------------------------------------------------------|
B|------------------------------------------------------------|
G|------------------------------------------------------------|
D|-------------------------------------------------------3333-|
A|------------------------------------------------------------|
D|--0h2-2-2h3p2--2p0h2-2-2h5p2--2p0h2-2-2h3p2--2p0h2-2-2------|

e|-------------------------------------------------------------------------|
B|-------------------------------------------------------------------------|
G|-------------------------------------------------------------------------|
D|-------------------------------------------------------------------------|
A|---------------------------------------------------------5p0-3p0-2p0-----|
D|--2p0h2-2-2h3p2--2p0h2-2-2h5p2--2p0h2-2-2h3p2--2p0h2-2-2-------------5-3-|

e|------------------------------------------------------------|
B|------------------------------------------------------------|
G|------------------------------------------------------------|
D|-------------------------------------------------------3333-|
A|------------------------------------------------------------|
D|--0h2-2-2h3p2--2p0h2-2-2h5p2--2p0h2-2-2h3p2--2p0h2-2-2------|

e|---------------------------------------------------------|
B|---------------------------------------------------------|
G|---------------------------------------------------------|
D|-------------------------------------------2-------------|
A|-------------------------------------------2-------------|
D|--2p0h2-2-2h3p2--2p0h2-2-2h5p2--2p0h2-2-2--2-------------|

repeat from *** barring across D,A,and D

Chorus 4x

e|---------------------------------------------|
B|---------------------------------------------|
G|---------------------------------------------|
D|--2--0-0-2--0h2-2-0h2---0h2-2-0h2--0h3--0h3--|
A|--2--0-0-2--0h2-2-0h2---0h2-2-0h2--0h3--0h3--|
D|--2--0-0-2--0h2-2-0h2---0h2-2-0h2--0h3--0h3--|

e|---------------------------------------------|
B|---------------------------------------------|
G|---------------------------------------------|
D|--0h2-2-0h2---0h2-2-0h2--0h2-2-0h2--0h3--0h3-|
A|--0h2-2-0h2---0h2-2-0h2--0h2-2-0h2--0h3--0h3-|
D|--0h2-2-0h2---0h2-2-0h2--0h2-2-0h2--0h3--0h3-|

e|---------------------------------------------|
B|---------------------------------------------|
G|---------------------------------------------|
D|--2-2-2-2-2-2-2-2-2-2-2-2--0h3--0h3----------|
A|--2-2-2-2-2-2-2-2-2-2-2-2--0h3--0h3----------|
D|--2-2-2-2-2-2-2-2-2-2-2-2--0h3--0h3----------|

e|------------------------------------------------------|
B|------------------------------------------------------|
G|------------------------------------------------------|
D|--2-2-2-2-2-2-2-2-2-2-2-2--0h5--0h3--0h5--0h3--0h2-2--|
A|--2-2-2-2-2-2-2-2-2-2-2-2--0h5--0h3--0h5--0h3--0h2-2--|
D|--2-2-2-2-2-2-2-2-2-2-2-2--0h5--0h3--0h5--0h3--0h2-2--|

6.Broken Wings

Tuning: Db,Ab,Db,Gb,Bb,Eb

Effects: Seems to be a chorus of some sort

e|------7----------------------------|
B|------7----------------------------|
G|------9b10r9--7-------7---6--------|
D|---------------9---/9---9----------|
A|0~~~~------------------------------|
E|-----------------------------------|

then... improv this scale
it'll sound real similar
until the verse

e|----7---9--10--|
B|----7---8--10--|
G|-6--7---9------|
D|----7---9------|
A|----7---9------|
E|---------------|

Verse:

e|---------------------------------------------------------------------|
B|--------------------------------------------------------------0------|
G|---------0-----------------0----------------0-------------------0----|
D|---0-------0---0----0--------0---0----0-------0---0----0----------0--|
A|-----0-------0--------2--------2--------0-------0--------5----------5|
E|-0-----0----------2-----2-----------0-----0----------5-----5---------|

Still working on the prechorus...its sounds tough

Chorus:
  On Broken Wings im fallin' and it won't be long....
  Basically just D,A,B,G
e|--------------------------------------------2--------------|
B|----------------------3-----------10--------2-------8------|
G|----------------------2-----------9---------4-------7------|
D|----------------------0-----------7---------4-------5------|
A|----------------------0-----------7---------2-------5------|
E|----------------------0-----------7-----------------5------|

7.In Loving Memory

Intro/Verse
e-----------------------------------------------------------|
B--6--7p6---4--4h5p4-------------------2--2/4\2p00----------|
G---6----6---4------4---3-----------------------------------|
D---------6----------4----4-6h8p6p4--4----------------------|
A--4-4------2-2---------------------8--44-4/6/4-------------|
D-------------------------4---------------------------------|

e--------------6~~~--------9-7-6-6--7-6---------------------|
B-6--7p6---4-6--------------------------9~~~~---------------|
G--6----6---------------------------------------------------|
D--------6--------------------------------------------------|
A-4-4------2-4----------------------------------------------|
D--------------4----4-4-------------------------------------|

E-----4--------------1-----------------4---------9----------I
B-----4--------------1-----------------4---------9----------I
G-----6--------------3-----------------6---------11---------I
D-----6---6h8p6p4-4--3-----------------6---------11---------I
A-----4----------8---1---6h8p6p4-4-----4---------9----------I
D-----4--------------1----------8------4---6/8-8-9----------I

8.Down To My Last

Tuning: Standard down ½ step (low to high - Eb Ab Db Gb Bb eb)

Intro - Distortion

eb|-------------------------------------------------------------------|
Bb|-------------------------------------------------------------------|
Gb|-------------------------------------------------------------------|
Db|-11--11—-11-12-12/14--14-12-11-11----------------------------------|
Ab|-0---0---0--0--0------0--0--0--0---14--14--11-12-12/14--14-12-11---|
Eb|-----------------------------------0---0---0--0--0------0--0--0----|
                                   
                                  
eb|--------------------------------------------------------------|
Bb|--------------------------------------------------------------|
Gb|-11--11--11-9-9----14p12p11-----------------------------------|
Db|-0---0---0--0-0--0----------12p11p9-11--11-11-9—---7-9b(1)r-7-|
Ab|-0---0---0--0-0--0------------------0---0--0--0---(0)-------0-|
Eb|--------------------------------------------------------------|


Verse 1 - clean

eb|---------------------------------------------------|
Bb|---------------------------------------------------|
Gb|---------------------------------------------------|
Db|-11--11—-11-12--12-12-11---------------------------|
Ab|-0---0---0--0---0--0--0---11--11--11-12--12-12-11--|
Eb|--------------------------0---0---0--0---0--0--0---|
                                                                     
eb|---------------------------------------------------------|
Bb|---------------------------------------------------------|
Gb|-11--11--11-9--9-9-9p7\6---------------------------------|
Db|-0---0---0--0--0-0-0------11—-11--11-12—-12-12-12-11—-9--|
Ab|--------------------------0---0---0--0---0--0--0—-0---0--|
Eb|---------------------------------------------------------|

eb|----------------------------------------------------|
Bb|----------------------------------------------------|
Gb|----------------------------------------------------|
Db|-/11--11—-11-12--12-12-11---------------------------|
Ab|--0---0---0--0---0--0--0---11--11--11-12--12-12-11--|
Eb|---------------------------0---0---0--0---0--0--0---|
                                   
eb|------------------------------------------------------------------|
Bb|------------------------------------------------------------------|
Gb|-11--11--11-9--9-9-11brp9------14--14-14-14--14-14--14-14--14-14--|
Db|-0---0---0--0--0-0-0------11—9-11--11-11—11--11-12--12-12—-12-11--|
Ab|-------------------------------0---0--0--0---0--0—--0--0---0--0---|
Eb|------------------------------------------------------------------|


Verse - Distortion

eb|-------------------------------------------------------------------|
Bb|-------------------------------------------------------------------|
Gb|-------------------------------------------------------------------|
Db|-11--11—-11-12-12/14--14-12-11-11----------------------------------|
Ab|-0---0---0--0--0------0--0--0--0---14--14--11-12-12/14--14-12-11---|
Eb|-----------------------------------0---0---0--0--0------0--0--0----|
                                   
eb|-------------------------------------------------------------------|
Bb|-------------------------------------------------------------------|
Gb|-11--11--11-9--9-9--9----------------------------------------------|
Db|-0---0---0--0--0-0--0--11-9-11--11-11-11—-11-12-—12-12—-12-11--9---|
Ab|-0---0---0--0--0-0--0-------0---0--0--0---0—-0---0--0---0--0---0---|
Eb|-------------------------------------------------------------------|

eb|-------------------------------------------------------------------|
Bb|-------------------------------------------------------------------|
Gb|-------------------------------------------------------------------|
Db|-/11--11—-11-12-12/14--14-12-11-11---------------------------------|
Ab|--0---0---0--0--0------0--0--0--0---14--14--11-12-12/14--14-12-11--|
Eb|------------------------------------0---0---0--0--0------0--0--0---|

eb|------------------------------------------------|
Bb|--------------------------3--3--3-3-3-3--3-3-3--|
Gb|--------------------------2--2--2-2-2-2--2-2-2--|
Db|--4--4-----4--------------0--0--0-0-0-0--0-0-0--|
Ab|--4--4-4-4-4--4-4-4-4--4--0--0--0-0-0-0--0-0-0--|
Eb|--2--2-2-2-2--0-2-0-2--0------------------------|
          . .

Chorus

eb|-------------------------------------------------------------------|
Bb|-------------------------------------------------------------------|
Gb|-14--14--14-14-14-----14-14-14-14----------------------------------|
Db|-11--11—-11-12-12h14--14-12-11-11--14--14--14-14-14-----14-14-14---|
Ab|-0---0---0--0--0------0--0--0--0---14--14--11-12-12h14--14-12-11---|
Eb|-----------------------------------0---0---0--0--0------0--0--0----|
                                   
eb|-------------------------------------------------------------------|
Bb|-------------------------------------------------------------------|
Gb|-11--11--11-9--9—11br9-------14--14-14-14--14-14--14-14--14-14-----|
Db|-0---0---0--0--0-0-----11-9--11--11-11-11—-11-12-—12-12—-12-11--9--|
Ab|-0---0---0--0--0-------------0---0--0--0---0—-0---0--0---0--0---0--|
Eb|-------------------------------------------------------------------|

eb|-------------------------------------------------------------------|
Bb|-------------------------------------------------------------------|
Gb|-14--14--14-14-14-----14-14-14-14----------------------------------|
Db|-11--11—-11-12-12h14--14-12-11-11--14--14--14-14-14-----14-14-14---|
Ab|-0---0---0--0--0------0--0--0--0---14--14--11-12-12h14--14-12-11---|
Eb|-----------------------------------0---0---0--0--0------0--0--0----|

eb|--------------------------------------------------------------|
Bb|-----------------------------------------3--3--3-3-3-3--3-3-3-|
Gb|-2--2-2----------------------------------2--2--2-2-2-2--2-2-2-|
Db|-0--0-0--7--7-7--7-7--4--4-----------4---0--0--0-0-0-0--0-0-0-|
Ab|-0--0-0--4--4-4--4-4--4--4--4-4-4-4--4---0--0--0-0-0-0--0-0-0-|
Eb|----------------------2--2--0-2-0-2--2------------------------|
                               . . . .

9.Watch Your Words

Drop D
Main Riff/Intro
Eb------------------------------------------------------------------------|
Bb------------------------------------------------------------------------|
Gb------------------------------------------------------------------------|
Db--------------------------------13-13-13-12-13-----8-8-8-10-8-----------|
Ab---------6-5-6----8-10-6-5------------------------------------8-10-6----|
Db------0--------0-----------0-0-----------------0------------------------|
                                  |triplet|         |triplet|
Eb-------------------------------------------------------------------------|
Bb-------------------------------------------------------------------------|
Gb-------------------------------------------------------------------------|
Db-0---0-0-0--0--6------5h6-0---0-0-0--0--6------5h6-1-/\--5-/\-12-12-12-10|
Ab-0---0-0-0--0--6------5h6-0---0-0-0--0--6------5h6-1-/\--5-/\-8--8--8--8-|
Db-0---0-0-0--0--6--0-0-5h6-0---0-0-0--0--6--0-0-5h6-1-/\--5-/\-8--8--8--8-|
       PM------|    PM-|        PM------|    PM-|     

-Strumed electric goes here (ill be back ;) )

Chorus - "i can wait...."
Eb-------------------------------------------------------------------------|
Bb-------------------------------------------------------------------------|
Gb---------------5--5----------------7-----10-9-7----7----------------5b6b5|
Db-3--3-3-3-3-3--5--5--5-5-5-5--0--0---0-0-0------10----0--5b6b5--3-0------|
Ab-3--3-3-3-3-3--3--3--5-5-5-5--0--0-5-0-0--------------0------------------|
Db-3--3-3-3-3-3--------5-5-5-5--0--0---0-0--------------0------------------|

10.Shed My Skin

Tuning: Drop-D one whole step down (low to high - CGCFAD)

Intro, clean w/ fingers

d|---------------------------------------------------------|
A|---------------------------------------------------------|
F|-----------------------------------------0-------0-------|
C|-9--7----4h5-4-----------4/2~--0h2h4---4---4---4—--(4)/--|
G|----------------0--------------------2-------2-----(2)/--|
C|-5--5--0-0---0----0----0---------------------------------|


d|---------0--------|
A|-----------0------|
F|-------7-----7----|
C|-----7---------7--|
G|---5--------------|
C|-5----------------|


Verse 1

d|---------------------------------------------------------|
A|---------------------------------------------------------|
F|-----------------------------------------0-------0-------|
C|-9--7----4h5-4-----------4/2~--0h2h4---4---4---4—--(4)/--|
G|----------------0--------------------2-------2-----(2)/--|
C|-5--5--0-0---0----0----0---------------------------------|

 
First and second ending              Third ending

d|---------0--------|               d|-----+12--|
A|-----------0------|               A|-----+12--|
F|-------7-----7----|               F|-----+12--|
C|-----7---------7--|               C|-7--------|
G|---5--------------|               G|-5--------|
C|-5----------------|               C|-5--------|



Pre-chorus, distortion w/ pick

d|---------------------------------------------------------------|
A|---------------------------------------------------------------|
F|--------/12—-11~-------------6—-7~---11-----7------------11~-/-|
C|--9--7---x---x---0--0--0-0---x--x----9------5----9--7----x-----|
G|--9--7--/10—-9~--0--0--0-0---4—-5~---9------5----9--7----9~--/-|
C|--9--7-----------0--0--0-0-0---------9------5----9--7—-0-------|
                             .                           

d|----------------------------------------------------------|
A|----------------------------------------------------------|
F|--14~-14-14\-11~-11--11\9~-9~--11-----7-------------------|
C|--x---x--x---x---x----x--------9------5-------------------|
G|--12~-12-12\-9~--9--0-9\7~-7~--9------5----9-4-0-4--5-4-5-|
C|-(0)--------(0)-----0----------9------5----9-4-0-4—-5-4-5-|
                                             . . . .  . . .
                                                light pm   

Chorus - Distortion, listen for strumming

d|-----------------------------------------------------------|
A|-12------8------3----------------------3-------------------|
F|-11------7------2-------------12-11~\--2-------------6-7~/-|
C|-9-------5------0---0--0-0----x--x-----0---0--0-0----x-x---|
G|-9-------5------0---0--0-0--0-10-9~-\--0---0--0-0--0-4-5~/-|
C|-9-------5------0---0--0-0--0----------0---0--0-0--0-------|
                              .                      .

d|-----------------------------------------------------------|
A|-12------------------8------3------------------------------|
F|-11----6-6/7-7\6-6/7-7------2-------------12-11~---11--9---|
C|-9-----x-x---x---x---5------0---0--0-0----x--x-----9---7---|
G|-9-----4-4/5-5\4-4/5-5------0---0--0-0--0-10-9~----9---7---|
C|-9-------------------5------0---0--0-0--0----------9---7---|
                                          .


Pre-verse 2, clean w/ fingers

d|--0----5p0-----------------------------------0--------|
A|--7--------7-----------------------------------0------|
F|--7----------7--------0-------0------------7-----7----|
C|--0-----------------4---4---4---(4)/-----7---------7--|
G|--0---------------2-------2-----(2)/---5--------------|
C|--0----------------------------------5----------------|


Verse 2 - same as verse 1


Pre-chorus 2 - same as pre-chorus 1


Chorus - same as the first chorus, except skip the last two chords and 

         head straight into the bridge


Bridge - Distortion

d|--------------------|
A|------------8-\-7---|
F|--6----4----7---7---|
C|--7----4----5---5---|  X 1
G|--4----2----5---5---|
C|------------5---5---|


Clean

d|--0--(0)--5p0------------0--0-0-0--0-0-0---------------------------|
A|--7—-(7)------7------7-7-5--5-5-5--5-5-5--8--8--8-8-7-7--5-5-7-----|
F|--7--(7)--------7----7-7-6--6-6-7--7-7-6--7--7--7-7-7-7--7-7-7-----|
C|--0--(0)-------------0-0-7--7-7-7--7-7-7--5--5--5-5-5-5--5-5-5-----|
G|--0--(0)-------------0-0-0--0-0-0--0-0-0--5--5--5-5-5-5--5-5-5-----|
C|--0--(0)-------------0-0------------------5--5--5-5-5-5--5-5-5-----|


d|--0--0--0-0-0-0--0-0-0--|
A|--7--7--7-7-5-5--8-8-7--|
F|--7--7--7-7-7-7--7-7-7--|
C|--0--0--0-0-0-0--0-0-0--|  X 2
G|--0--0--0-0-0-0--0-0-0--|
C|--0--0--0-0-0-0--0-0-0--|


Third time

d|--0------5p0------------0--0-0-0--0-0-0---------------------------|
A|--7—--7------7------7-7-5--5-5-5--5-5-5--8--8--8-8-7-7--5-5-5-----|
F|--7---7--------7----7-7-6--6-6-7--7-7-6--7--7--7-7-7-7--7-7-7-----|
C|--0---0-------------0-0-7--7-7-7--7-7-7--5--5--5-5-5-5--5-5-5-----|
G|--0---0-------------0-0-0--0-0-0--0-0-0--5--5--5-5-5-5--5-5-5-----|
C|--0---0-------------0-0------------------5--5--5-5-5-5--5-5-5-----|


Distortion kicks in:

d|-------------------------------------------------------|
A|--3--3--3-3-3-3--3-3-3---------------------------------|
F|--2--2--2-2-2-2--2-2-2------7---7---------7---11-12~-\-|
C|--0--0--0-0-0-0--0-0-0------x---x---------x---x--------|
G|--0--0--0-0-0-0--0-0-0--0-0-5-0-5---------5---9--10~-\-|
C|--0--0--0-0-0-0--0-0-0--0-0---0---0--0--0---0----------|
                          . .   .         .   .



Chorus - Distortion, listen for strumming

d|-----------------------------------------------------------|
A|-12------8------3----------------------3-------------------|
F|-11------7------2-------------12-11~\--2-------------6-7~/-|
C|-9-------5------0---0--0-0----x--x-----0---0--0-0----x-x---|
G|-9-------5------0---0--0-0--0-10-9~-\--0---0--0-0--0-4-5~/-|
C|-9-------5------0---0--0-0--0----------0---0--0-0--0-------|
                              .                      .

d|--------------------------------------------------------------------|
A|-12-----------------8-----3---------------------3-------------------|
F|-11--6-6/7-7/12-12~-7-----2-------------12-11~\-2-------------6-7~\-|
C|-9---x-x---x----x---5-----0---0--0-0----x--x----0---0—-0-0----x-x---|
G|-9---4-4/5-5/10-10~-5-----0---0--0-0--0-10-9~-\-0---0--0-0--0-4-5~\-|
C|-9------------------5-----0---0--0-0--0---------0---0—-0-0--0-------|
                                        .                     .   
 
d|----------------------------|
A|-12------------------8-\-7--|
F|-11----6-6/7-7\6-6~--7---7--|
C|-9-----x-x---x---x---5---5--|
G|-9-----4-4/5-5\4-4~--5---5--|
C|-9-------------------5---5--|


Outro - Distortion

d|---------------------------------------------------|
A|--3—---(5)----8(7)---------------------------------|
F|--2—----6-----7---------7---7---------7---11-12~-\-|
C|--0-----7-----5---------x---x---------x---x--------|
G|--0—----0-----5-----0-0-5-0-5---------5---9--10~-\-|
C|--0-----------5-----0-0---0---0--0--0---0----------|
                      . .   .         .   .


Lead Fill - repeats every other time through the chord progression 
            during the A chord (x0765X)

d|--10-9-7-------------------|
A|---------10-8-7—7h8p7------|
F|----------------------9—7~-|
C|---------------------------|
G|---------------------------|
C|---------------------------|

11.The End Is Here

Tuning: Low to High (EADGBe)

Intro - clean, w/ fingers

d|----22---20---18---18/20\18---17---17---15/17/18---17---15--|
A|------------------------------------------------------------|
F|----19---17---15---15/17\15---14---14---12/14/15---14---12--|
C|(0)----0----0----0----------0----0----0----------0----0-----|
G|------------------------------------------------------------|
C|------------------------------------------------------------|

Intro (continued)

d|----15/17\15---14---14--------------------------------------|
A|------------------------------------------------------------|
F|----12/14\12---11---11--------------------------------------|
C|--0----------0----0----0-0-0--------------------------------|
G|------------------------------------------------------------|
C|------------------------------------------------------------|


Pre-verse 1 - clean, w/ pick

d|-----------------------------------------------------------------|
A|-----------------------------------------------------------------|
F|--7--7-------9---10------7---7------6—-6--7-7/9---9-7---7-7/9-9--|
C|--x--x-------10--10------8---8------7—-7--x-x-----x-x—--x-x---10-|
G|--5--5-------7---8-------5---5------4—-4--5-5/7---7-5---5-5/7-7--|
C|--0--0--0-0--0---0---0-0-0---0--0-0-0—-0--0-0(0)--0-0---0-0-0-0--|

d|-----------------------------------------|
A|-------------------5h6p5-8-6-5-----------|
F|--10------7—--7----------------7-5-------|
C|--10------8---8--------------------8-7~~-|
G|--8-------5---5--0-----------------------|
C|--0—--0-0-0---0—-0-----------------------|


Verse 1 - clean, w/ pick

d|-----------------------------------------------------------------|
A|-----------------------------------------------------------------|
F|--7--7-------9---10------7---7------6—-6--7-7/9---9-7---7-7/9-9--|
C|--x--x-------10--10------8---8------7—-7--x-x-----x-x—--x-x---10-|
G|--5--5-------7---8-------5---5------4—-4--5-5/7---7-5---5-5/7-7--|
C|--0--0--0-0--0---0---0-0-0---0--0-0-0—-0--0-0(0)--0-0---0-0-0-0--|





d|------------------------------|  
A|------------------------------|  
F|--10------7—--7----6--6-6—-6/-|
C|--10------8---8----7—-7-7—-7/-|   
G|--8-------5---5----4--4-4--4/-|
C|--0—--0-0-0---0—-0-0--0-0--0--|


Distortion kicks in:

d|---------------|
A|---------------|
F|---------------|
C|-x-0-3—--3-3---|
G|-x-0-3—--3-3---|
C|-x-0-3—--3-3---|



Chorus - Distortion

d|------------------------------------------------------------------|
A|--3--------10-10--------------------------------------------------|
F|--2----6----9--9----5----5b(1)r~--4-------------------------------|
C|--0----7----7--8----3----x--------5-------------------------------|
G|--0----4----7--8----3----3b(1)r---2------0-0-0-1b~---0-0-0-1b/----|
C|--0---------7--8----3--------------------0-0-0-1b~---0-0-0-1b/----|
                                        pm . . .    pm . . .           
                                                  
Chorus (continued)

d|-------------------------------------------------------------------|
A|--3--------10-10---------------------------------------------------|
F|--2----6----9--9--------5----5b(1)r~--4----------------------------|
C|--0----7----7--8--------3----x--------5-------let ring----------0--|
G|--0----4----7--8—---0-0-3----3b(1)r---2-------------------------0--|
C|--0---------7--8----0-0-3---------------------------------------0--|
                   pm . .       


Pre-verse 2 - clean, w/ pick

d|-----------------------------------------------------------------|
A|-----------------------------------------------------------------|
F|--7--7-------9---10------7---7------6—-6--7-7/9---9-7---7-7/9-9--|
C|--x--x-------10--10------8---8------7—-7--x-x-----x-x—--x-x---10-|
G|--5--5-------7---8-------5---5------4—-4--5-5/7---7-5---5-5/7-7--|
C|--0--0--0-0--0---0---0-0-0---0--0-0-0—-0--0-0(0)--0-0---0-0-0-0--|

d|------------------------------------------------|
A|------------------------------------------------|
F|--10------7—--7---------6-7-9~------------------|
C|--10------8---8-------7--------7p5-7~-----------|
G|--8-------5---5--0--5-----------------(7)/8-5~--|
C|--0—--0-0-0---0—-0------------------------------|


Verse 2 - same as verse 1, you can improvise fills similar to the  
          previous ones

Chorus - same as before


Interlude - clean, w/ fingers

d|----22---20---18---18/20\18---17---17---15/17/18---17---15--|
A|------------------------------------------------------------|
F|----19---17---15---15/17\15---14---14---12/14/15---14---12--|
C|(0)----0----0----0----------0----0----0----------0----0-----|
G|------------------------------------------------------------|
C|------------------------------------------------------------|


d|----15/17\15---14---14--------|
A|------------------------------|
F|----12/14\12---11---11--------|
C|--0----------0----0----0-0-0--|   x 2 
G|------------------------------|
C|------------------------------|


d|------------------------------------------------------------|
A|------------------------------------------------------------|
F|----19---17---15---15/17\15---14---14---12/14/15---14---12--|
C|------------------------------------------------------------|
G|----17---15---13---13/15\13---12---12---10/12/13---12---10--|
C|-------0----0----0----------0----0----0----------0----0-----|


d|------------------------------|
A|------------------------------|
F|----12/14\12--11---11---------|
C|------------------------------|   x 2 
G|----10/12\10---9----9---------|
C|--0----------0----0----0-0-0--|

Distortion, w/ pick (all 0's palm muted)

d|-----------------------------------------------------------|
A|-----------------------------------------------------------|
F|----19----17----15----15/17-15----14----14----12/14-15-----|
C|----x-----x-----x-----x-----x-----x-----x-----x-----x------|
G|----17-00-15-00-13-00-13/15-13-00-12-00-12-00-10/12—13-00--|
C|-------00----00----00----------00----00----00----------00--|


d|------------------------------------|
A|------------------------------------|
F|--14----12----12/14-12----11----11--|
C|--x-----x-----x-----x-----x-----x---|   x 2 
G|--12-00-10-00-10/12-10-00-9--00-9---|
C|-----00----00----------00----00-----|


w/ wah 

d|-----------------------------------------------------------------|
A|-----------------------------------------------------------------|
F|----19~----17~----15~---15/17-15~----14~----14~----12/14-15~----|
C|----x------x------x------x-----x------x------x------x-----x------|
G|----17~----15~----13~---13/15-13~----12~----12~----10/12—13~----|
C|-----------------------------------------------------------------|


d|------------------------------------------|
A|------------------------------------------|
F|--14~----12~----12/14-12~---11~----11~~---|
C|--x------x------x-----x-----x------x------|   x 1
G|--12~----10~----10/12-10~---9~-----9~~----|
C|------------------------------------------|


no wah

d|--------------------------------------------------------------|
A|--------------------------------------------------------------|
F|----19-----15-----17-----14-----15---12---15-----12-----11~~--|
C|----x------x------x------x------x----x----x------x------x-----|
G|----17-0-0-13-0-0-15-0-0-12-0-0-13-0-10-0-13-0-0—10-0-0-9~~---|
C|-------0-0----0-0----0-0----0-0----0----0----0-0----0-0-------|


Chorus - same as before


"Here" (4:04) - palm mute all 0's

d|--------------------------|
A|--------------------------|
F|--------------------------|
C|--------------------------|
G|--0-1b--0-1b--0-1b--0-1b--|
C|--0-1b--0-1b--0-1b--0-1b--|


d|-------------------------------------------------------|
A|-------------------------------------------------------|
F|-------------------------------------------------------|
C|------------------------------------------5~0-5~0------|
G|--0-0--0-3b--0-0--0-1b--0-0--0—3b--0-0--0---------5-3--|
C|--0-0--0-3b--0-0--0-1b--0-0--0-3b--0-0--0--------------|
                                            w/ wah





d|-------------------------------------------------------|
A|-------------------------------------------------------|
F|-------------------------------------------------------|
C|------------------------------------------5~0—0tr(1)---|
G|--0-0--0-3b--0-0--0-1b--0-0--0—3b--0-0--0--------------|
C|--0-0--0-3b--0-0--0-1b--0-0--0-3b--0-0--0--------------|
                                            w/ wah


Repeat heavy interlude parts until the end

That's the whole album. GOOD JOB GUYS!
comments
print report bad tab
3 comments total.
0 reply
PageEnthusiast wrote on November 23 2004, 12:00 am

Hey bud nice tabbing. Wonderful album isnt it? I just wish somebody could put the solo for "Down To My Last" I was sorta figuring it out but i only have bits and pieces.

0 reply
IamJonsCranium wrote on December 13 2004, 12:00 am

ya, i was trying to get the solo for burn it down, but didnt really have the time to put into it at the moment. i'll post it if i finish over the holidays. for andrew, you might consider updating this file and re-submitting it, there are tabs for some of the songs (burn it down and broken wings for sure) that are more accurate.

0 reply
JokerFighter wrote on March 17 2007, 04:12 pm

tab looks really good man =)
you just forgott one thing, u didnt type legends for the ppl who dosent know what u mean =)
other than that verry good job!

I want to post or [tab]
guest
You may want to rate the tab now too:
select rating
Please do not post tabs as comments. Select "correction" instead!