Oops, an error
Loading. Please wait.

One Day Remains Tab

ver2
ver2

Intro

Album

Whole song

More versions @911Tabs.com
4,337 views 3 this week
4 commentsread comments
1 2 3 4 5
worth learning
x 7
Autoscroll
+/-
esc
set tempo
stop
Contributor
WARNING: You are trying to view
                                    content from Ultimate-Guitar.com
                                    in an unauthorized application,
                                    which is prohibited.

                                    Please use an official Ultimate
                                    Guitar Tabs application for iPhone,
                                    iPad or Android to access legitimate
                                    chords, guitar, bass, and drum tabs
                                    from Ultimate-Guitar.com database.

                                    Type "ultimate guitar tabs" in Apple
                                    App Store's or Android Market's
                                    search to find the application.
ONE DAY REAMINS
ALTER BRIDGE
2004
TABBED BY: MARIANO ARNAIZ; MATÍAS CORRALES & FREDDY ARAUJO
ANYTHING TO: marianoarnaiz@hotmail.com

This is an exelent album, in my opinion one of the best of this year, this guys rock,
also I think that this group works a little better thatn creed, or at least they have
a more open mind, anyway lest start:

Important notes

         Songs               Tunnings                Time
1.	Open your eyes   - Standar, drop "D"     -  4:33
2.	Find the real    - ½ step down, drop "D" -  4:46
3.	One day remains  - Standar               -  4:08
4.	Burn it down     - Standar               -  6:14
5.	Metalingus       - ½ step down, drop "D" -  4:23
6.	Broken wings     - ½ step down, drop "B" -  5:09
7.	In loving memory - ½ step down           -  5:43
8.	Down to my last  - ½ step down           -  4:49
9.	Watch your words - ½ step down, drop "D" -  5:28
10.	Shed my skin     - 1 step down, drop "C" -  5:11
11.	The end is here  - 1 step down, drop "C" -  4:57

I recomend you to play this songs on a two humbuckers guitar like a Less Paul, a V
flying demond, and ofcourse a Paul Reed Smith model would be perfect (is the guitar
that Mark Tremonti plays). Also all the album is arrenged for one guitar.Oh! something
else you need distortion and Wah-Wah distorted to make this sounds great.

For the songs 4 (Burn it down) and 7 (In loving memory) you might use an acoustic
guitar with metal string or use and acoustic pedal to make your guitar sound like
a 12 metal strings guitar. That would make those sogs soung terrific.

Well just and advice, check the tabs from the top to the end before learning the
it. Alos i changed the tunning of some songs to make them easear to play with out
hainging much the tunning please play as i wrote them before saying it´s not ok.

So have fun and keep on rocking

IMPORTANT NOTE: FOR TABBING THIS ALBUM WERE NEEDED 4 GUITARS, TWO AMPLIFICATORS,
1 DISRTORTER, 1 WHAMY, 8 DAYS AND 3 BOXES OF COLD BEERS, YOU OWN US A LOT GUYS

1.- OPEN YOUR EYES
Intro
e---------------------------------------------------------------|
B---------------------------------------------------------------|
G---9/11-11-9--7--9/11-11-9--11--7--9/11-11-9--14--7/9--9--6-7--|
D---0-0--0--0--0--0-0--0--0--0---0--0-0--0--0--0---0-0--0--0-0--|
A---7/9--9--7--5--7/9--9--7--9---5--7/9--9--7--12--5/7--7--4-5--|
D---0-0--0--0--0--0-0--0--0--0---0—-0-0--0--0--0---0-0--0--0-0--|

Verse: The verse change during the song, the slide part change a
little in each verse but is not hard to figure that out
   Bm D     G
e--2--------------------------------------|
B--3--3-(3)-8-(8)-------------------------|
G--4--2—(2)—7-(7)—-9/11119-7—9/11-119/14--|
D--4--0—(0)-5-(5)--0-0-0-0-0--0-0-0-0-0---|
A--2--0-----5------7/9-9-7-5--7/9-9-7/12--|
D-----0-----5------0-0-0-0-0--0-0-0-0-0---|

  Bm D     G
e—2---------------------------------------|
B-3--3-(3)--8-(8)-------------------------|
G-4--2-(2)--7-(7)—-9/11119/14—-7/9-9-6/7--|
D-4--0-(0)--5-(5)--0-0-0-0-0---0-0-0-0-0--|
A-2--0------5------7/9-9-7/12--5/7-7-4/5--|
D-----------5------0-0-0-0-0---0-0-0-0-0—-|

Pre-chorus
   Bm D     G
e--2---------------|
B--3--3-(3)-8-(8)--|
G--4--2—(2)—7-(7)—-| x2
D--4--0—(0)-5-(5)--|
A--2--0-----5------|
D-----0-----5------|

Chorus
  D5 D5*  B5 G5    A5  G5
e--------------------------|
B--------------------------|
G-7---6---11--7-----9---7--|
D-7---7---9---5-----7---5--|
A-5---4---9---5-----7---5--|
D-0---0---9---5-----7---5--|

 D5     B5  A5
e----------------|
B----------------|
G-7---6---11--7--|
D-7---7---9---5--|
A-5---4---9---5--|
D-0---0---9---5--|


Intro
Verse
Pre-Chorus
Chorus

Bridge (first clean)
    Bm     G   D          D            D
e---2-2-------------------------------------|
B---3--3---8---3--5h7p5p3-5-3--5h7p5p3-5-3--|
G---4---4--7---2----------2-2----------2-2--|
D---4------5---0----------0-0----------0-0--|
A---2------5---0----------0-0----------0-0--|
D--(0)-----5---0----------0-0----------0-0--|

Bridge (now w/dist.)
   Bm    G  D
e---2-------------------------|
B---3----8--------------------|
G---4----7--------7--------7--|
D---4----5--0-0-0-0--0-0-0-0--|
A---2----5--0-0-0-5--0-0-0-5--|
D--------5--0-0-0-0--0-0-0-0--|

Solo
e--10b-10v--12b-12v---14b.r--14--16--17---19p15p14h15h17--|
B---------------------------------------------------------|
G---------------------------------------------------------|
D---------------------------------------------------------|
A---------------------------------------------------------|
D---------------------------------------------------------|

e--17-14------------14-17-14------------14-15-14------------|
B---------15-14-15------------15-14-15------------15-14-15--|
G-----------------------------------------------------------|
D-----------------------------------------------------------|
A-----------------------------------------------------------|
D-----------------------------------------------------------|

e--14-15-14------------14-15-14------------14-17-14------------|
B------------15-14-15------------15-14-15------------15-14-15--|
G--------------------------------------------------------------|
D--------------------------------------------------------------|
A--------------------------------------------------------------|
D--------------------------------------------------------------|

e--14-19-14------------14-19-14------------14-15-14------------14-15-14--|
B------------15-14-15------------15-14-15------------15-14-15------------|
G------------------------------------------------------------------------|
D------------------------------------------------------------------------|
A------------------------------------------------------------------------|
D------------------------------------------------------------------------|

e-----------------------------17----------17--|
B--14-15-17-15-14-15----14-15----15-14--------|
G--------------------14----------------14-----|
D---------------------------------------------|
A---------------------------------------------|
D---------------------------------------------|

e-----------------------------17---------------------|
B--14-15-17-15-14-15----14-15----15-14-----14-15b.r--|
G--------------------14----------------14—-----------|
D----------------------------------------------------|
A----------------------------------------------------|
D----------------------------------------------------|

e-17-15-14---------------------------------------------------------------|
B----------17-15-14-17-15-14-----------17-15-14--------------------------|
G-----------------------------14-12-11----------14-12-11-14-12-11--------|
D-----------------------------------------------------------------12-14--|
A------------------------------------------------------------------------|
D------------------------------------------------------------------------|

e--------------------------------17---------------------20b-20b-20b-20/-|
B-----------------14----15-14-15----14-15----14-15-14-------------------|
G--------11-14-12----12-------------------14----------------------------|
D--11-12----------------------------------------------------------------|
A-----------------------------------------------------------------------|
D-----------------------------------------------------------------------|

Chorus x2
Intro x2
2.- Find the real
Intro                           PM....|                         PH pitch c
eb|------------------------------------------------------------------| to db
bb|------------------------------------------------------------------|
gb|------------------------------------------------------------------|
Db|\----------------------------------------------------------4b5b4--|
Ab|\----------5-4-3-0---------------3---------------3---0-3-5--------|
Db|\--0-----0---------6~~~~-6-5-3-5---3-----3-4-3-x------------------|
                           PM......|      PM.....|     PM...|PH
eb|---------------------------------------------------------------|
bb|---------------------------------------------------------------|
gb|---------------------------------------------------------------|
Db|~~~------------------------------------------------------------|
Ab|-----------5-4-3-0---------------3---------------2-------------|
Db|---0-----0---------6~~~~-6-5-3-5---3~~---3-3-4-5-2---0-2-3-1~~~|

Verse 1 (play twice)
            PM......|     PM........|     PM......|   PM....|
eb|---------------------------------------------------------------|
bb|---------------------------------------------------------------|
gb|---------------------------------------------------------------|
Db|-----------------------------------------------------------4b5b|
Ab|-----------5-4-3-0---------------3---------------3---0-3-5-----|
Db|---0-----0---------6~~---6-5-3-5---3~~~--3-5-3-5---------------|
            PM.......|     PM........|      PM.....|  PM..|
eb|-----------------------------------------------------------------|
bb|-----------------------------------------------------------------|
gb|-----------------------------------------------------------------|
Db|b4---------------------------------------------------------------|
Ab|-----------5-4-3-0---------------3---------------3---0-3-5-5b6b5-|
Db|---0-----0---------6-----6-5-3-5---3-----3-4-3-5-----------------|

Chorus
eb|---------------------------------------------------------------|
bb|---------------------------------------------------------------|
gb|---3---------------5---------------5---------------7-----------|
Db|\\-3---------------3---------------5---------------5-----------|
Ab|---1-------------2-3---------------3-----------3-4-5-----------|
Db|-----------------2-3---------------------------3-4-5-----------|
                          wah....................|
eb|-----------------------------------------------------------------|
bb|-----------------------10----------------------------------------|
gb|---2-------------------12b14b12b14--12p10--10\\------10---12-10\-|
Db|---0-------------------------------------12--------10--12--------|
Ab|---0--------------------------------------------/12--------------|
Db|---0------------------------------------------0------------------|

eb|---------------------------------------------------------------|
bb|---------------------------------------------------------------|
gb|---3---------------5---------------5/7-7-7-7/9-9-7-7-7-7-------|
Db|-0-3---------------3---------------x---x-x-x---x-x-5-0-5-------|
Ab|-0-1-----------1-2-3---------------3/5-5-5-5/7-7-5-5-0-5-------|
Db|-0-------------1-2-3-------------------------------5-0-5-------|

eb|-------------------------------------------------------------------------|
bb|-----------------------10------------------------------13--------18-20b22|
gb|---7-------------------12b14b12b14b12p10--10---12-12/14--14-17-19---17b19|
Db|---0------------------------------------12-------------------------------|
Ab|---0---------------------------------------------------------------------|
Db|---0---------------------------------------------------------------------|

Pre-verse
eb|-----------------------------------------------------------------|
bb|-----------------------------------------------------------------|
gb|-----------------------------------------------------------------|
Db|-----------------------------------------------------------4b5b4-|
Ab|-----------5-4-3-0---------------3---------------3---0-3-5-------|
Db|---0-----0---------6~~---6-5-3-5---3-----3-5-3-5-----------------|
                                                               PH
eb|---------------------------------------------------------------|
bb|---------------------------------------------------------------|
gb|---------------------------------------------------------------|
Db|---------------------------------------------------------------|
Ab|-----------5-4-3-0-------0-------3---------------3---0-3-5-5b6~|
Db|---0-----0---------6~~~----5-3-5---3-----3-4-3-5---------------|

Verse

Chorus
eb|---------------------------------------------------------------|
bb|-------------------6---------------5---------------------------|
gb|---3---------------5---------------5---------------7-----------|
Db|5\-3---------------3---------------5---------------5-----------|
Ab|---1-----------1-2-3---------------3-----------3-4-5-----------|
Db|---------------1-2-3---------------------------3-4-5-----------|

eb|-------------------------10-------------------------------------------------|
bb|------------------------10-13-10------------------------12b13-10-12b13-10---|
gb|---7-------------10-12b14--------12b14b12p10-------------12b13-10-12b13-10--|
Db|---0----------/12-------------------------12-12p10-10-12--------------------|
Ab|---0---------------------------------------------12-------------------------|
Db|---0------------------------------------------------------------------------|

eb|---------------------------------------------------------------|
bb|---3---------------6-------------------------------8-----------|
gb|---3---------------5------6--------5/7-7-7-7/9-9-7-7-----------|
Db|---3---------------3---7-----------x---x-x-x---x-x-5-----------|
Ab|---1---------------3---------------3/5-5-5-5/7-7-5-5-----------|
Db|-------------------3-------------------------------5-----------|

eb|----------------------------------------------------------------------|
bb|----------------------------------------------------------------------|
gb|---7------------------------------------------------------------------|
Db|---0-----------------5b7-5~~p3--3-----------------------3---5b6b5-3---|
Ab|---0--------------------------5-----3-----3h5---------5-------------5-|
Db|---0----------------------------------5p3-------0---------------------|

Bridge
eb|---------------------------------------------------------------|
bb|---------------------------------------------------------------|
gb|---------------------------------------------------------------|
Db|---------------------------------------------------------------|
Ab|---------------------------------------------------------------|
Db|---0-------------------7-6---5---3-0---------------7-6---5---0-|

eb|---------------------------------------------------------------|
bb|---------------------------------------------------------------|
gb|---------------------------------------------------------------|
Db|---------------------------------------------------------------|
Ab|---------------------------------------------------------------|
Db|-3------------b5b3~~~~-7-6---5---0-5---------------7-6---5-----|
                w/ bar
eb|---------------------------------------------------------------|
bb|---------------------------------------------------------------|
gb|---------------------------------------------------------------|
Db|---------------------------------------------------------------|
Ab|---------------------------------------------------------------|
Db|-3-0~~~~~~~~~~----0----7-6---5---3-0---------------7-6---5-----|
                 \-2/
eb|---------------------------------------------------------------|
bb|---------------------------------------------------------------|
gb|---------------------------------------------------------------|
Db|---------------------------------------------------------------|
Ab|---------------------------------------------------------------|
Db|-0-3~~~~~~~~~-b5b3-----7-6---5---0-5---------------7-6---5-----|

eb|---------------------------------------------------------------|
bb|---------------------------------------------------------------|
gb|---------------------------------------------------------------|
Db|---------------------------------------------------------------|
Ab|---------------------------------------------------------------|
Db|-3-0-~~~~---~~~~~~~~~--7-6---5---3-0---------------7-6---5-----|
          \-2/
eb|---------------------------------------------------------------|
bb|---------------------------------------------------------------|
gb|---------------------------------------------------------------|
Db|---------------------------------------------------7-6---5-----|
Ab|---------------------------------------------------7-6---5-----|
Db|-0-3~~~~~~~~~~b5b3-----7-6---5---0-5---------------7-6---5-----|

Solo
eb|---------------------------------------------------------------|
bb|---13-----~~~~~~~~~~~~~~~~~~-----------------------------------|
gb|---12b14-----------------(12)-----/12b14----12b14--12b14b12p10-|
Db|-------------------------------------------------------------12|
Ab|~~~------------------------------------------------------------|
Db|---------------------------------------------------------------|
                           PH.....|
eb|----------------------------------------------------------------|
bb|---------------------------------------1013---1013---1013---1013|
gb|10-12b14-10-------------10b12b10~~~12b14--12b14--12b14--12b14---|
Db|------------12p10-10-12-----------------------------------------|
Ab|----------------12----------------------------------------------|
Db|----------------------------------------------------------------|

eb|-----------------------------|
bb|----1013---1013---1013---1013|
gb|12b14--12b14--12b14--12b14---|
Db|-----------------------------|
Ab|-----------------------------|
Db|-----------------------------|

eb|------------------------------------------13-15-15b17~~~~~~~17\|
bb|---15~~~~15~~~~15~~~~15~~15\13-------13-15---------------------|
gb|-----------------------------------14--------------------------|
Db|--------------------------------12-----------------------------|
Ab|---------------------------------------------------------------|
Db|---------------------------------------------------------------|

eb|-17b20-17-16-15---------15-15b17-15---------13-----------------|
bb|---------------18p15--18-----------18-15--15--15p13--15-13-----|
gb|---------------------------------------------------14----14-12b|
Db|---------------------------------------------------------------|
Ab|---------------------------------------------------------------|
Db|---------------------------------------------------------------|

eb|--------------------------12-10-|
bb|--------------------------12-10-|
gb|14-12p10-12-12b14--12p10--------|
Db|------------------------12------|
Ab|--------------------------------|
Db|--------------------------------|
     wah.........................................................
eb|-????????????????????--------1713----1613----15b16b1513--------|
bb|-????????????????????----1315----1513----1513----------151315~~|
gb|---------------------------------------------------------------|
Db|---------------------------------------------------------------|
Ab|---------------------------------------------------------------|
Db|---------------------------------------------------------------|

       .....................(wah).....................|
eb|---13------13--15--13------13------13--15--13------|
bb|15\--151315--15--15--15\/15--151315--15--15--151315|
gb|---------------------------------------------------|
Db|---------------------------------------------------|
Ab|---------------------------------------------------|
Db|---------------------------------------------------|

eb|-12b13-12---------------------------/22~~~22~~~22~~22~~22\20---|
bb|--------15-12b13-12-----------------------------------------22-|
gb|------------------14-10b12-10-9-10~~---------------------------|
Db|---------------------------------------------------------------|
Ab|---------------------------------------------------------------|
Db|---------------------------------------------------------------|

Last Chorus
eb|---------------------------------------------------------------|
bb|---3---------------6---------------5---------------8-----------|
gb|---3---------------5---------------5---------------7-----------|
Db|-0-3---------------3---------------5-----------3-4-5-----------|
Ab|-0-1-------------2-3---------------3-----------3-4-5-----------|
Db|-0---------------2-3---------------------------3-4-5-----------|

eb|---14~~~~~~~~~~~~~-------------------------------------------------------|
bb|--------------------------------------------------1010----13-----13~~~~~~|
gb|-----------10-10-----10----101212p10--10-10-------1010--10--14p12--12b14~|
Db|----0------10-10-----10----101212p101210-1012p10-------------------------|
Ab|----0-------------------------------12----------12-----------------------|
Db|----0----0---------0----0------------------------------0-----------------|

eb|---------------------------------------------------------------|
bb|---3-----------------------------------------------------------|
gb|---3---------------5---------------5/7-7-7-7/9-9-7-7-7-7-------|
Db|---3-----------1-2-3---------------x---x-x-x---x-x-5-0-5-------|
Ab|---1-----------1-2-3---------------3/5-5-5-5/7-7-5-5-0-5-------|
Db|---------------1-2-3-------------------------------5-0-5-------|

eb|------------------------------------------------------------------------|
bb|--------------------10--------------------10--------1010----------------|
gb|---7----------------12b14b12b14---12p10---10--------1010---------10-----|
Db|---0-----------------------------------12----12p10--------12p10----12~~~|
Ab|---0----------------------------------------------12-----------12-------|
Db|---0----------------------------------------------------0---------------|

eb|-----------------------------------------------------------------|
bb|-----------------------------------------------------8-----------|
gb|---3-------3-------5-------5-------5/7-7-7/9-9-7-7---7-----------|
Db|---3-------3-------3-------3-------x---x-x---x-x-5---5-----------|
Ab|---1-------1-------3-------3-------3-5-5-5-7-7-5-5---5-----------|
Db|-------------------3-------3---------------------5---5-----------|

eb|-----------------------------------------------------------------|
bb|-----------------------------------------------------------------|
gb|---7-------------------------------------------------------------|
Db|---0----------------5b6---5p3---3-3-------3-0-0---0-3---5b6b5p3--|
Ab|---0--------------------------5-----5p3p0---0-0---0-------------5|
Db|---0----------------------------------------0-0---0--------------|

eb|---------------------------------------------------------------------16/|
bb|------------1013---1013---1013---1013---1013---1013-15~~~15~~~15~~~15---|
gb|--------12b14--12b14--12b14--12b14--12b14--12b14------------------------|
Db|---0--------------------------------------------------------------------|
Ab|---0--------------------------------------------------------------------|
Db|---0--------------------------------------------------------------------|


Outro
eb|----------------------------------------------------------------|
bb|----------------------------------------------------------------|
gb|----------------------------------------------------------------|
Db|\----------------------------------------------------------4b5b4|
Ab|\----------5-4-3-0---------------3---------------3---0-3-5------|
Db|\--0-----0---------6~~~~-6-5-3-5---3-----3-4-3-x----------------|
                                           PM......|   PM....|
eb|---------------------------------------------------------------------|
bb|---------------------------------------------------------------------|
gb|---------------------------------------------------------------------|
Db|~~~--------------------------------------------------0-2-3-1--------0|
Ab|-----------5-4-3-0---------------3---------------2---0-2-3-1--------0|
Db|---0-----0---------6~~~~-6-5-3-5---3~~---3-3-4-5-2---0-2-3-1--------0|


3.- One day remains
Intro
e|--------------------|
b|--------------------|
g|--------------------|
D|-------------*7-----|
A|-0-*12-*5--*7-------|
E|--------------------|
drums kick in
e|----------------------------------------------------------------|
b|----------------------------------------------------------------|
g|----------------------------------------------------------------|
D|-*7~~~~~~~~~~~~~~~~~~~------------------------------------------|
A|-*5-----------------------------*7~~~~~~~~~~~~~~~~~~~~~~~~~~----|
E|--------------------------------*5------------------------------|
       PH at neck pickup
e|----------------------------------------------------------------|
b|----------------------------------------------------------------|
g|-4---~~~~~~~~~~~~~~~~~~~~~~~~~~~~b5b4-~~~~~~~~~~~~~~~~~~~~------|
D|----------------------------------------------------------------|
A|----------------------------------------------------------------|
E|----------------------------------------------------------------|

e|----------------------------------------*12~~~~~~~~~------------|
b|----------------------------------------------------------------|
g|----------------------------------------------------------------|
D|-*7-~~~~~~~~~~~~~~~~~~~~~~--------------------------------------|
A|-*5-----------------------------*7-~~~~~~~~~~~~~~~~~~~~~--------|
E|--------------------------------*5-~~~~~~~~~~~~~~~~~~~~---------|
                                         PS
e|----------------------------------------------------------------|
b|-0--------------------------------------------------------------|
g|-4--------------------------------------------------------------|
D|--------------------------------------\\\\\\\\\\\\\\\\\\\\\\\\\\|
A|--------------------------------------\\\\\\\\\\\\\\\\\\\\\\\\\\|
E|----------------------------------------------------------------|

Pre-verse 1 (play twice)
      wah..........................................................
e|----------------------------------------------------------------|
b|----------------------------------------------------------------|
g|----------------------------------------------------------------|
D|12-0-9-0-0-0-0-0-7-0-0-0-7-0-7-6-----7-------7---6-------7---6-4|
A|---------------------------------4-4---4-4-4---4---4-4-4---4----|
D|----------------------------------------------------------------|

   ....................(wah)......................................
e|----------------------------------------------------------------|
b|----------------------------------------------------------------|
g|----------------------------------------------------------------|
D|----------------------------------------------------------------|
A|-2-0-2-6-2-0-2-0-2-6-2-0-2-6-2-0-2-0-2-6-2-0-2-6-2-4-2-0-2-4-2-0|
E|----------------------------------------------------------------|

Verse 1
    PM..............................................................
e|----------------------------------------------------------------|
b|----------------------------------------------------------------|
g|----------------------------------------------------------------|
D|----------------------------------------------------------------|
A|12-0-9-0-0-0-0-0-7-0-0-0-7-0-7-6-----7-------7---6-------7---6-4|
E|---------------------------------4-4---4-4-4---4---4-4-4---4----|


     PM.............................................................|
e|----------------------------------------------------------------:|
b|----------------------------------------------------------------:|
g|----------------------------------------------------------------:| x3
D|----------------------------------------------------------------:|
A|-2-0-2-6-2-0-2-0-2-6-2-0-2-6-2-0-2-0-2-6-2-0-2-6-2-4-2-0-2-4-2-0:|
E|----------------------------------------------------------------:|

    PM..............................................................
e|----------------------------------------------------------------|
b|----------------------------------------------------------------|
g|----------------------------------------------------------------|
D|----------------------------------------------------------------|
A|12-0-9-0-0-0-0-0-7-0-0-0-7-0-7-6-----7-------7---6-------7---6-4|
E|---------------------------------4-4---4-4-4---4---4-4-4---4----|
           PM..|       PM..|               PM..|       PM..|
e|----------------------------------------------------------------|
b|----------------------------------------------------------------|
g|-4-----------4-----4-------------4-----------4------------------|
D|-4-----4-----4-----4-------------4-----4-----4-----4------------|
A|-2-----2-2-2-2-----2-2-2-2h4p2p0-2-----2-2-2-2-----2-2-2-2h4p2p0|
E|-2-----2-2-2-2-----2-2-2---------2-----2-2-2-2-----2-2-2--------|

Chorus
            PM..|                           PM..|
e|-0-------------------------------0------------------------------|
b|-0-----------------------0-------0-----0-----0-----------0------|
g|-4-----4-----4-----4-4-4-4-------4-----4-----4-----------4------|
D|-2-----2-2-2-2-----2-2-2-2---2-2-4-----4-4-4-4-----4-4-4-4---4-4|
A|-0-----0-0-0-0-----0-0-0-0---0-0-2-----2-2-2-2-----2-2-2-2---2-2|
E|---------------------------------0-----0-0-0-0-----0-0-0-0---0-0|
           PM..|       PM..|               PM..|       PM..|
e|----------------------------------------------------------------|
b|----------------------------------------------------------------|
g|-4-----------4-----4-------------4-----------4------------------|
D|-4-----4-----4-----4-------------4-----4-----4-----4------------|
A|-2-----2-2-2-2-----2-2-2-2h4p2p0-2-----2-2-2-2-----2-2-2-2h4p2p0|
E|-2-----2-2-2-2-----2-2-2---------2-----2-2-2-2-----2-2-2--------|
          PM..|                           PM..|
e|-0-------------------------------0------------------------------|
b|-0-------------------------------0-----0-----0-----------0------|
g|-4-----4-----4--------420--------4-----4-----4-----------4------|
D|-2-----2-2-2-2-----------420-----4-----4-4-4-4-----4-4-4-4---4-4|
A|-0-----0-0-0-0---------------4-0-2-----2-2-2-2-----2-2-2-2---2-2|
E|---------------------------------0-----0-0-0-0-----0-0-0-0---0-0|
           PM..|       PM..|               PM..|       PM..|
e|----------------------------------------------------------------|
b|----------------------------------------------------------------|
g|-4-----------4-----4-------------4-----------4------------------|
D|-4-----4-----4-----4-------------4-----4-----4-----4------------|
A|-2-----2-2-2-2-----2-2-2-2h4p2p0-2-----2-2-2-2-----2-2-2-2h4p2p0|
E|-2-----2-2-2-2-----2-2-2---------2-----2-2-2-2-----2-2-2--------|
          PM..|                           PM..|
e|-0-------------------------------0------------------------------|
b|-0-----------------------0-------0-----0-----0-----------0------|
g|-4-----4-----4-----4-4-4-4-------4-----4-----4-----------4------|
D|-2-----2-2-2-2-----2-2-2-2---2-2-4-----4-4-4-4-----4-4-4-4---4-4|
A|-0-----0-0-0-0-----0-0-0-0---0-0-2-----2-2-2-2-----2-2-2-2---2-2|
E|---------------------------------0-----0-0-0-0-----0-0-0-0---0-0|

          PM..|       PM..|               PM..|       PM..|
e|----------------------------------------------------------------|
b|----------------------------------------------------------------|
g|-4-----------4-----4-------------4-----------4------------------|
D|-4-----4-----4-----4-------------4-----4-----4-----4------------|
A|-2-----2-2-2-2-----2-2-2-2h4p2p0-2-----2-2-2-2-----2-2-2-2h4p2p0|
E|-2-----2-2-2-2-----2-2-2---------2-----2-2-2-2-----2-2-2--------|

e|----------------------------------------------------------------|
b|----------------------------------------------------------------|
g|----------------------------------------------------------------|
D|-11----11----11-------12----11-7--------------------------------|
A|-0-----0-----0--------0-----0--0-11----11----11-------12----11-7|
E|---------------------------------0-----0-----0--------0-----0--0|
           PM..|       PM..|               PM..|       PM..|
e|----------------------------------------------------------------|
b|----------------------------------------------------------------|
g|-4-----------4-----4-------------4-----------4------------------|
D|-4-----4-----4-----4-------------4-----4-----4-----4------------|
A|-2-----2-2-2-2-----2-2-2-2h4p2p0-2-----2-2-2-2-----2-2-2-2h4p2p0|
E|-2-----2-2-2-2-----2-2-2---------2-----2-2-2-2-----2-2-2--------|

Solo 1
e|-4h5-2h4h5-2h4h5-----5-----5------------------------------------|
b|-----------------5h7---5h7---5\4-----5-----5-----4-------5---4p2|
g|----------------------------------------------------------------|
D|---------------------------------6-6---6-6---6-6---6-6-6--------|
A|----------------------------------------------------------------|
E|----------------------------------------------------------------|

e|----------------------------------------------------------------|
b|-----0h4---------0h4-----0h4---------0h4---------0h4-----0h4----|
g|-4p2-----4p2h4p2-----4p2-----4p2-4p2-----4p2h4p2-----4p2-----4p2|
D|----------------------------------------------------------------|
A|----------------------------------------------------------------|
E|----------------------------------------------------------------|

e|-4h5-2h4h5-2h4h5-----5-----5------------------------------------|
b|-----------------5h7---5h7---5\4-----5-----5-----4-------5---4p2|
g|----------------------------------------------------------------|
D|---------------------------------6-6---6-6---6-6---6-6-6--------|
A|----------------------------------------------------------------|
E|----------------------------------------------------------------|

e|----------------------------------------------------------------|
b|-----0h4---------0h4-----0h4---------0h4---------0h4-----4-\----|
g|-4p2-----4p2h4p2-----4p2-----4p2-4p2-----4p2h4p2-----4p2--------|
D|----------------------------------------------------------------|
A|----------------------------------------------------------------|
E|----------------------------------------------------------------|

Verse 2
    PM..............................................................
e|----------------------------------------------------------------|
b|----------------------------------------------------------------|
g|----------------------------------------------------------------|
D|----------------------------------------------------------------|
A|12-0-9-0-0-0-0-0-7-0-0-0-7-0-7-6-----7-------7---6-------7---6-4|
E|---------------------------------4-4---4-4-4---4---4-4-4---4----|

    PM.............................................................|
e|----------------------------------------------------------------:|
b|----------------------------------------------------------------:|
g|----------------------------------------------------------------:| x3
D|----------------------------------------------------------------:|
A|-2-0-2-6-2-0-2-0-2-6-2-0-2-6-2-0-2-0-2-6-2-0-2-6-2-4-2-0-2-4-2-0:|
E|----------------------------------------------------------------:|
    PM..............................................................
e|----------------------------------------------------------------|
b|----------------------------------------------------------------|
g|----------------------------------------------------------------|
D|----------------------------------------------------------------|
A|12-0-9-0-0-0-0-0-7-0-0-0-7-0-7-6-----7-------7---6-------7---6-4|
E|---------------------------------4-4---4-4-4---4---4-4-4---4----|


         PM..|       PM..|               PM..|       PM..|
e|----------------------------------------------------------------|
b|----------------------------------------------------------------|
g|-4-----------4-----4-------------4-----------4------------------|
D|-4-----4-----4-----4-------------4-----4-----4-----4------------|
A|-2-----2-2-2-2-----2-2-2-2h4p2p0-2-----2-2-2-2-----2-2-2-2h4p2p0|
E|-2-----2-2-2-2-----2-2-2---------2-----2-2-2-2-----2-2-2--------|

Chorus

Solo 2
e|------------------------------------------------------------------------|
b|0h12h1612h1612p0h12------------12h14-0h12h1612h1612p0h12----------------|
g|-------------------1413141314h16------------------------1413141314b16~~~|
D|------------------------------------------------------------------------|
A|------------------------------------------------------------------------|
E|------------------------------------------------------------------------|

e|------------------------------------------------------------------------|
b|0h12h1612h1612p0h12------------12h14-0h12h1612h1612p0h12----------------|
g|-------------------1413141314h16------------------------1413141314b16~~~|
D|------------------------------------------------------------------------|
A|------------------------------------------------------------------------|
E|------------------------------------------------------------------------|

e|--------------------------------141414-------------------------------------|
b|0h12h1612h1612p0h12h1712h1712p012----12p0h12h1712h1712p0h12h1612h1612p0h12-|
g|---------------------------------------------------------------------------|
D|---------------------------------------------------------------------------|
A|---------------------------------------------------------------------------|
E|---------------------------------------------------------------------------|

e|---1419141914--1419141914--141914--1419141914-------------------|
b|-16----------16----------16------16----------16h19--16-19~~~~~~~|
g|----------------------------------------------------------------|
D|----------------------------------------------------------------|
A|----------------------------------------------------------------|
E|----------------------------------------------------------------|

Bridge    how it feels.....
e|----------------------------------------------------------------|
b|----------------------------------------------------------------|
g|----------------------------------------------------------------|
D|-11----11----11-------12----11-7--------------------------------|
A|-0-----0-----0--------0-----0--0-11----11----11-------12----11-7|
E|---------------------------------0-----0-----0--------0-----0--0|

e|----------------------------------------------------------------|
b|----------------------------------------------------------------|
g|-4-----------4-----4-------------4-----------4------------------|
D|-4-----4-----4-----4-------------4-----4-----4-----4------------|
A|-2-----2-2-2-2-----2-2-2-2h4p2p0-2-----2-2-2-2-----2-2-2-2h4p2p0|
E|-2-----2-2-2-2-----2-2-2---------2-----2-2-2-2-----2-2-2--------|

e|----------------------------------------------------------------|
b|----------------------------------------------------------------|
g|----------------------------------------------------------------|
D|-11----11----11-------12----11-7--------------------------------|
A|-0-----0-----0--------0-----0--0-11----11----11-------12----11-7|
E|---------------------------------0-----0-----0--------0-----0--0|

           PM..|       PM..|               PM..|       PM..|
e|----------------------------------------------------------------|
b|----------------------------------------------------------------|
g|-4-----------4-----4-------------4-----------4------------------|
D|-4-----4-----4-----4-------------4-----4-----4-----4------------|
A|-2-----2-2-2-2-----2-2-2-2h4p2p0-2-----2-2-2-2-----2-2-2-2h4p2p0|
E|-2-----2-2-2-2-----2-2-2---------2-----2-2-2-2-----2-2-2--------|
e|----------------------------------------------------------------|
b|----------------------10~~~~~~~---------------------------------|
g|----------------------------------------------------------------|
D|-11----11----11-------------11-7--------------------------------|
A|-0-----0-----0--------------0--0-11----11----11-------12----11-7|
E|---------------------------------0-----0-----0--------0-----0--0|
          PM..|       PM..|               PM..|       PM..|
e|----------------------------------------------------------------|
b|----------------------------------------------------------------|
g|-4-----------4-----4-------------4-----------4------------------|
D|-4-----4-----4-----4-------------4-----4-----4-----4------------|
A|-2-----2-2-2-2-----2-2-2-2h4p2p0-2-----2-2-2-2-----2-2-2-2h4p2p0|
E|-2-----2-2-2-2-----2-2-2---------2-----2-2-2-2-----2-2-2--------|

e|----------------------------------------------------------------|
b|----------------------------------------------------------------|
g|----------------------------------------------------------------|
D|-11----11----11-------12----11-7--------------------------------|
A|-0-----0-----0--------0-----0--0-11----11----11-------12----11-7|
E|---------------------------------0-----0-----0--------0-----0--0|
           PM..|       PM..|               PM..|       PM..|
e|----------------------------------------------------------------|
b|----------------------------------------------------------------|
g|-4-----------4-----4-------------4-----------4------------------|
D|-4-----4-----4-----4-------------4-----4-----4-----4------------|
A|-2-----2-2-2-2-----2-2-2-2h4p2p0-2-----2-2-2-2-----2-2-2-2h4p2p0|
E|-2-----2-2-2-2-----2-2-2---------2-----2-2-2-2-----2-2-2--------|

Chorus

Outro
e|----------------------------------------------------------------|
b|-------------------------10~~~~~~~------------------------------|
g|----------------------------------------------------------------|
D|-11----11----11-------12----------------------------------------|
A|-0-----0-----0--------0----------11----11----11-------12----11-7|
E|---------------------------------0-----0-----0--------0-----0--0|

e|-----------------------|
b|-0---------------------|
g|-4---------------------|
D|-4---------------------|
A|-2---------------------|
E|-2---------------------|


4.-  Burn it down
Tuning: Standard
Intro/Verse - Clean
e|--0--0-0-----0----0--0-0-----0--0--0--0--------0----0--0-0-0------------|
B|--0--0-0--0---0---0--0-0--------0--0---0--------0---0--0-0-0------------|
G|--8--8-8--7----7--6--6-6----5---3--3----3--------3--3--3-3-3------------|
D|--9--9-9--7-------7--7-7---5----4--4----------------4--4-4-4-(4-4-4)/---|
A|--9--9-9--5-5-----7--7-7--3-----4--4----------------4--4-4-4--4-4-4-/---|
E|--7--7-7----------5--5-5--------2--2-2----0-2-3-----2--2-2-2--0-2-3-/---|

Chorus - Clean
e|--0---0---0---0------------------------------------------------------|
B|--0---0---0---0------------------------------------------------------|
G|--8---4---7---6h(7)--------------------------------------------------|
D|--9---5---7---7------------------------------------------------------|
A|--9---5---5---0------------------------------------------------------|
E|--7---3--------------------------------------------------------------|
Fill 1
e|---------------------------------------------------------------------|
B|---------------------------------------------------------------------|
G|------5---5-7b(1/4)-5~~----------------------------------------------|
D|--5h7---7------------------------------------------------------------|
A|---------------------------------------------------------------------|
E|---------------------------------------------------------------------|

Chorus - Distortion
e|-(0)-(0)-(0)-(0)-----------------------------------------------------|
B|-(0)-(0)-(0)-(0)-----------------------------------------------------|
G|--8---4---7---6h(7)--------------------------------------------------|
D|--9---5---7---7------------------------------------------------------|
A|--9---5---5---0------------------------------------------------------|
E|--7---3---5----------------------------------------------------------|

"Whatever takes us away" - Clean or roll the volume on the guitar down low
e|--0---0---0----------------------------------------------------------|
B|--0---0---0----------------------------------------------------------|
G|--2---4---6h(7)------------------------------------------------------|
D|--3---5---7----------------------------------------------------------|
A|--3---5---0----------------------------------------------------------|
E|--1---3--------------------------------------------------------------|
Fill 2
e|---------------------------------------------------------------------|
B|---------------------------------------------------------------------|
G|--9\7-5---5-7b(1/4)-5------------------------------------------------|
D|--------7------------------------------------------------------------|
A|---------------------------------------------------------------------|
E|---------------------------------------------------------------------|
"Remember you'll find a new way" - Distortion
e|-(0)-----(0)---------(0)-----(0)----------(0)-----(0)----------------|
B|-(0)-----(0)---------(0)-----(0)----------(0)-----(0)----------------|
G|-(2)--5--(4)--7------(2)--5--(4)--7-6-----(2)--5--(4)----------------|
D|--3---5---5---7-------3---5---5---7-6------3---5---5-----------------|
A|--3---3---5---5-------3---3---5---5-4------3---3---5-----------------|
E|--1---3---3---5-------1---3---3---5-4------1---3---3-----------------|
"Oooooon" - Distortion
e|-(0)-----(0)---(0)---(0)---------------------------------------------|
B|-(0)-----(0)---(0)---(0)---------------------------------------------|
G|--6h(7)--(4)---(2)---(4)---------------------------------------------|
D|--7-------5-----3-----5----------------------------------------------|
A|--0-------5-----3-----5----------------------------------------------|
E|----------3-----1-----3----------------------------------------------|
Last Chorus - Distortion
e|-(0)-----(0)-------(0)-----------------------------------------------|
B|-(0)-----(0)-------(0)-----------------------------------------------|
G|--6h(7)--(2)---5---(4)-----------------------------------------------|
D|--7-------3----5----5------------------------------------------------|
A|--0-------3----3----5------------------------------------------------|
E|----------1----3----3------------------------------------------------|
Solo Chords - Distortion
e|-(0)-----(0)---(0)---(0)---------------------------------------------|
B|-(0)-----(0)---(0)---(0)---------------------------------------------|
G|--6h(7)--(4)---(2)---(4)---------------------------------------------|
D|--7-------5-----3-----5----------------------------------------------|
A|--0-------5-----3-----5----------------------------------------------|
E|----------3-----1-----3----------------------------------------------|

Last Chord
e|-(0)-----------------------------------------------------------------|
B|-(0)-----------------------------------------------------------------|
G|--6------------------------------------------------------------------|
D|--7------------------------------------------------------------------|
A|--0------------------------------------------------------------------|
E|---------------------------------------------------------------------|

Solo
e|-------------------------------------------------------------------------|
b|-12~~~~-------------12-------------13------------------------------------|
g|-14b16---14b16b16b16--(14)b16b14-12-(14)b16-b14p12-14b16~~14b16bb14-12h14|
d|-------------------------------------------------------------------------|
a|-------------------------------------------------------------------------|
E|-------------------------------------------------------------------------|

e|------------/12--15p12--------------------------------------|
b|13----------------------------------------------------------|
g|--14-------------------9\7p5-5------------------------------|
d|-------------------------------7p5h7~------2p0--------------|
a|-----x--12\------------------------------3------3-------5p3-|
E|-------------------------------------3h5---------5p3h5------|

e|-------------------------------------------------------------------------|
b|-------------------------------------------------------------------------|
g14-12-17p1412h14p1217p1412h17p1412h17p1412h17p1412h17p1412h17p1412h19\17~\|
d|-------------------------------------------------------------------------|
a|-------------------------------------------------------------------------|
E|-------------------------------------------------------------------------|
                                                   PH
e|-----------------------------------------------------------------|
b|-----------------------------------------------------------------|
g|0-5-0-2-0-2-0-5-0-2-5-2-0-5-0-2-5-2-0-5-0-2-5-2-0-2~~~~~~/-------|
d|-----------------------------------------------------------------|
a|-----------------------------------------------------------------|
E|-----------------------------------------------------------------|
              PM.....|    PM.....|  PM...|  PM...|    PH(pitch f#)
e|-----------------------------------------------------------------|
b|-----------------------------------------------------------------|
g|-5-7p5---5-9-5-9-5---5-7-5-7-5---5-9-5---5-7-5-7p5-7b~~~~~b~~~---|
d|-------7-----------7-----------7-------7-------------------------|
a|-----------------------------------------------------------------|
E|-----------------------------------------------------------------|

e|--12-----12--------------12-----12-----12--------------------------------|
b|12--12h13--13p12h13p12h13--13p12--12h13--13p12p13p12p13h15p13p12h13~~~~~~|
g|-------------------------------------------------------------------------|
d|-------------------------------------------------------------------------|
a|-------------------------------------------------------------------------|
E|-------------------------------------------------------------------------|

e|----------------------------------------------------------------19~~~~~~~|
b|---------------------12--------------------------------------------------|
g|-14-14-12------------12----------------12--------------------------------|
d|-14-------12b13b12p10---12b13-b12p10---12-10-------------10--------------|
a|-x----------------------------------12-------12p10--10-12--12------------|
E|--------------------------------------------------12---------------------|

5.- Metalingus
Intro
                                        w/ bar.........| |....|  PS
eb|*12-------------------------------(12)---------------*9----*12-|
bb|*12-------------------------------(12)----------*9---------*12-|
gb|-----------------------------------------------------------*12-|
Db|---------------------------------------------------------------|
Ab|-------------------------------------------------------------\\|
Db|-------------------------------------------------------------\\|
                   w/ bar.........|                   w/ bar.....|
eb|---------------------------------------------------------------|
bb|---------------------------------------------------------------|
gb|--------------*5-------------------------------------*12-------|
Db|--------------*5-------------------------------------*12-------|
Ab|\5-2-0-2------*5------------------5-0-2-3-----2-\-0--*12-------|
Db|\5-2-0-2--------------------------5-0-2-3-----2-\-0------------|

Pre-verse
                                                             PM....
eb|----------------------------------------------------------------|
bb|----------------------------------------------------------------|
gb|----------------------------------------------------------------| x2
Db|----------------------------------------------------------------|
Ab|---5-2-0-2-0-2-5-2-0-2-0-2-3-2-0-2-5-2-0-2-0-2-5-2-0-2-0-2------|
Db|(3)5-2-0-2-0-2-5-2-0-2-0-2-3-2-0-2-5-2-0-2-0-2-5-2-0-2-0-2-3-3-3|

Verse
       I've been        defeated               and brought
gtr1
eb|---------------------------------------------------------------|
bb|---8---------------------1010------------------6---------------|
gb|---7---------------------9-9-------7-----------5---------------|
Db|---5---------------------7-7-------0-----------3---------------|
Ab|-3/5---------------------7-7-------0-----------3---------------|
Db|-3/5---------------------7-7-------0-----------3---------------|
      down.........                           oh....
     PM....|  PM......|   PM........| PM..|   PM  PM..|       PM..
eb|---------------------------------------------------------------|
bb|---------------------------------------------------------------|
gb|---------------------------------------------------------------|
Db|---------------------------------------------------------------|
Ab|---5-2-0-2---2-5-2-0-2---2-5-2-0-2-5-2-0-2---2-5-2-0-2---3---2-|
Db|---5-2-0-2---2-5-2-0-2---2-5-2-0-2-5-2-0-2---2-5-2-0-2---3---2-|
         dropped        to my      knees    when hope     ran
...|                                           w/ bar
eb|---------------------------------------------------------------|
bb|---8---------------------1010----------------------------------|
gb|---7---------------------9-9-------7---------------------------|
Db|---5---------------------7-7-------0---------------------------|
Ab|-2-5---------------------7-7-------0---------------------------|
Db|-2-5---------------------7-7-------0----------*2.8~~~~~~~~~~~~~|
   out                                         oh...............
     PM....|  PM......|   PM........| PM..|   PM  PM..|       PM..
eb|---------------------------------------------------------------|
bb|---------------------------------------------------------------|
gb|---------------------------------------------------------------|
Db|---------------------------------------------------------------|
Ab|---5-2-0-2---2-5-2-0-2---2-5-2-0-2-5-2-0-2---2-5-2-0-2---3---2-|
Db|~~-5-2-0-2---2-5-2-0-2---2-5-2-0-2-5-2-0-2---2-5-2-0-2---3---2-|



  The  time        has      come     to change          my
...|
eb|---------------------------------------------------------------|
bb|---8---------------------1010------------------6---------------|
gb|---7---------------------9-9-------7-----------5---------------|
Db|---5---------------------7-7-------0-----------3---------------|
Ab|-2-5---------------------7-7-------0-----------3---------------|
Db|-2-5---------------------7-7-------0-----------3-------------2-|


Prechorus
           ways..................................................
gtr1  wah..........................................................
eb|---------------------------------------------------------------|
bb|---------------------------------------------------------------|
gb|---------------------------------------------------------------|
Db|---------------------------------------------------------------|
Ab|-2-5-2-0-2-0-2-5-2-0-2-0-2-3-2-0-2-5-2-0-2-0-2-5-2-0-2-3-3-3-3-|
Db|-2-5-2-0-2-0-2-5-2-0-2-0-2-3-2-0-2-5-2-0-2-0-2-5-2-0-2-3-3-3-3-|
   ..............................                         On this
..................(wah)..............|
eb|---------------------------------------------------------------|
bb|---------------------------------------------------------------|
gb|----------------------------------------------------------*5---|
Db|-----------------------------------5-2-0-2-----5-2-0-2----*5---|
Ab|-----------------------------------5-2-0-2-----5-2-0-2----*5---|
Db|-5-2-0-2-0-2-5-2-0-2-0-2-3-2-0-2---5-2-0-2-----5-2-0-2---------|


1stChorus
    day                I   see      clearly                 every-
gtr1                                                     w/bar(trem flutter)
eb|---------------------------------------------------------------|
bb|---------------------------------------------------------------|
gb|---------------------------------------------7-7-----*5----~~~~|
Db|---2-2-2-0-2---------2-----4-4---4-5---------5-5---5-----------|
Ab|---2-2-2-0-2---------2-----4-4---4-5---------5-5---5-----------|
Db|---2-2-2-0-2---------2-----4-4---4-5---------5-5---5-----------|
                                                             \-.5/

   thing        has   come      to   life                A bitter

eb|---------------------------------------------------------------|
bb|---------------------------------------------------------------|
gb|-----------7---------------7-7-7-7-5-5---7---7-9-9-111112121414|
Db|---0-0-----x-------0-0-0-0-x-x-x-x-x-x---x---x-x-x-x-x-x-x-x-x-|
Ab|---0-0-----5-------0-0-0-0-5-5-5-5-3-3---5---5-7-7-9-9-10101212|
Db|---0-0-----0-------0-0-0-0-------------------------------------|


    place              and a        broken   dream       And we'll

eb|---------------------------------------------------------------|
bb|---------------------------------------------------------------|
gb|---------------------------------------------7-7--------45754--|
Db|-0-2-2-2-5-2---------2-----4-4---4-5---------5-5---5-457-----75|
Ab|-0-2-2-2-5-2---------2-----4-4---4-5---------5-5---5-----------|
Db|-0-2-2-2-5-2---------2-----4-4---4-5---------5-5---5-----------|


   leave        it    all         leave        it     all
eb|---------------------------------------------------------------|
bb|---------------------------------------------------------------|
gb|-----------7-----7---------9\7-7\5-5-5---7---9-1111121212141414|
Db|---0-0---0-x-----x-0-0-0-0-x---x---x-x---x---x-x-x-x-x-x-x-x-x-|
Ab|---0-0---0-5-----5-0-0-0-0-7\5-5\3-3-3---5---7-9-9-101010121212|
Db|---0-0---0---------0-0-0-0-------------------------------------|
Pre-verse
Verse
Prechorus
Choursa
Bridge
     Alive.......................................................
      PM.....................................................|
eb|-----------------------------------------------------------------|
bb|-----------------------------------------------------------------|
gb|-----------------------------------------------------------------|
Db|-----------------------------------------------------------3-3-3-|
Ab|-0---------------------------------------------------------------|
Db|-0-0-2-2-2-4-2---2-0-2-2-2-5-2---2-0-2-2-2-3-2---2-0-3-3-3-------|
      PM.........................................|
eb|----------------------------------------------------------------|
bb|----------------------------------------------------------------|
gb|----------------------------------------------------------------|
Db|-3--------------------------------------------------------------|
Ab|-------------------------------------------------2-5-2-3-0-2----|
Db|---0-2-2-2-4-2---2-0-2-2-2-5-2---2-0-2-2-2-3-2---------------2-5|
          oh........................
        PM..........|    PM.........|   PM..................|
eb|-----------------------------------------------------------------|
bb|-----------------------------------------------------------------|
gb|-----------------------------------------------------------------|
Db|-----------------------------------------------------------3-3-3-|
Ab|-----------------------------------------------------------------|
Db|-3-0h2-2-2-4-2---2-0h2-2-2-5-2---2-0h2-2-2-3-2---2-3-3-3-3-------|
        PM..........|   PM..........|   PM..........|
eb|---------------------------------------------------------------|
bb|---------------------------------------------------------------|
gb|---------------------------------------------------------------|
Db|-3-------------------------------------------------2320--------|
Ab|-------------------------------------------------------5-2-3-0-|
Db|---0h2-2-2-4-2---2-0h2-2-2-5-2---2-0h2-2-2-3-2---2-------------|
      Fear           will            kill          me
        PM..........|   PM..........|   PM.................|
eb|-----------------------------------------------------------------|
bb|-----------------------------------------------------------------|
gb|-----------------------------------------------------------------|
Db|-----------------------------------------------------------3-3-3-|
Ab2320--------------------------------------------------------------|
Db|---0h2-2-2-4-2---2-0h2-2-2-5-2---2-0h2-2-2-3-2---2-3-3-3-3-------|
       all               I           could          be
        PM..........|   PM..........|   PM..........|
eb|----------------------------------------------------------------|
bb|----------------------------------------------------------------|
gb|----------------------------------------------------------------|
Db|-3--------------------------------------------------------------|
Ab|-------------------------------------------------2-5-2-3-0-2----|
Db|---0h2-2-2-4-2---2-0h2-2-2-5-2---2-0h2-2-2-3-2---------------2-5|
      lift            these          sorrrrrrrrrrrrows
        PM..........|   PM..........|   PM..................|
eb|-----------------------------------------------------------------|
bb|-----------------------------------------------------------------|
gb|-----------------------------------------------------------------|
Db|-----------------------------------------------------------3-3-3-|
Ab|-----------------------------------------------------------------|
Db|-3-0h2-2-2-4-2---2-0h2-2-2-5-2---2-0h2-2-2-3-2---2-3-3-3-3-------|
      let            me              breathe
        PM..........|   PM..........|
eb|---------------------------------------------------------------|
bb|---------------------------------------------------------------|
gb|---------------------------------------------------------------|
Db|-3-------------------------------------------------------------|
Ab|---------------------------------------------------------------|
Db|---0h2-2-2-5-2---2-0h2-2-2-3-2---2-0h2-2-0-2-5-2-0-2-----------|


      could          you          set            me
eb|-----------------------------------------------------------------|
bb|-----------------------------------------------------------------|
gb|-----------------------------------------------------------------|
Db|---0h2---2-3p2---2-0h2---2-5p2---2-0h2---2-3p2-------------3-3-3-|
Ab|---0h2---2-3p2---2-0h2---2-5p2---2-0h2---2-3p2-------------------|
Db|---0h2---2-3p2---2-0h2---2-5p2---2-0h2---2-3p2---2-3-3-3-3-------|
        freeeeeeeeeeeeeeeeeeeeeeeeeeeeeeeeee.....
eb|---------------------------------------------------------------|
bb|---------------------------------------------------------------|
gb|---------------------------------------------------------------|
Db|-3-0h2---2-4p2---2-0h2---2-5p2---2-0h2---2-3p2-----2320--------|
Ab|---0h2---2-4p2---2-0h2---2-5p2---2-0h2---2-3p2-----------2-3-0-|
Db|---0h2---2-4p2---2-0h2---2-5p2---2-0h2---2-3p2---2-------------|
       could        you            set           me ...
eb|-----------------------------------------------------------------|
bb|-----------------------------------------------------------------|
gb|-----------------------------------------------------------------|
Db|---0h2---2-3p2---2-0h2---2-5p2---2-0h2---2-3p2-------------3-3-3-|
Ab23200h2---2-3p2---2-0h2---2-5p2---2-0h2---2-3p2-------------------|
Db|---0h2---2-3p2---2-0h2---2-5p2---2-0h2---2-3p2---2-3-3-3-3-------|
       freeeeeeeeeeeeeeeeeeeeeeeeeeeeeeeeeeeee....        on this
eb|---------------------------------------------------------------|
bb|---------------------------------------------------------------|
gb|---------------------------------------------------------------|
Db|-3-0h2---2-3p2---2-0h2---2-5p2---2-0h2---2-4p2---0h2-----------|
Ab|---0h2---2-3p2---2-0h2---2-5p2---2-0h2---2-4p2---0h2-----------|
Db|---0h2---2-3p2---2-0h2---2-5p2---2-0h2---2-4p2---0h2-----------|

Chorus

Outro  alive..................................................
                                                     PM      PM
eb|---------------------------------------------------------------|
bb|---------------------------------------------------------------|
gb|---------------------------------------------------5-5-----5-5-|
Db|---2---2-2-3p2-----0h2-2-2-5p2-----0h2-2-2-3p2-----3-3-----3-3-|
Ab|---2---2-2-3p2-----0h2-2-2-5p2-----0h2-2-2-3p2-----3-3-----3-3-|
Db|---2---2-2-3p2-----0h2-2-2-5p2-----0h2-2-2-3p2-----3-3-----3-3-|
                                                     PM      PM
eb|---------------------------------------------------------------|
bb|---------------------------------------------------------------|
gb|---------------------------------------------------5-5-----5-5-|
Db|-2-0h2---2-3p2-----0h2---2-5p2-----0h2---2-3p2-----3-3-----3-3-|
Ab|-2-0h2---2-3p2-----0h2---2-5p2-----0h2---2-3p2-----3-3-----3-3-|
Db|-2-0h2---2-3p2-----0h2---2-5p2-----0h2---2-3p2-----3-3-----3-3-|
                                                    PM      PM
eb|---------------------------------------------------------------|
bb|---------------------------------------------------------------|
gb|---------------------------------------------------5-5-----5-5-|
Db|---0---2---3---2---0---2---3---2---0---2---3---2---3-3-----3-3-|
Ab|---0---2---3---2---0---2---3---2---0---2---3---2---3-3-----3-3-|
Db|---0---2---3---2---0---2---3---2---0---2---3---2---3-3-----3-3-|

eb|---------------------------------------------------------------|
bb|---------------------------------------------------------------|
gb|---------------------------------------------------------------|
Db|---0---2---3---2---0---2---3---2---0---2---3---2-0-2-5---5-2-3-|
Ab|---0---2---3---2---0---2---3---2---0---2---3---2-0-2-5---5-2-3-|
Db|---0---2---3---2---0---2---3---2---0---2---3---2-0-2-5---5-2-3-|

eb|-----------------------|
bb|-------------------5-5-|
gb|-------------------4-4-|
Db|-3-2-5---5-2-3---0-2-2-|
Ab|-3-2-5---5-2-3---0-2-2-|
Db|-3-2-5---5-3-3---0-2-2-|

6.-Broken wings
Intro
eb|-----------------------------------------------------------------|
bb|-------10---------------------0---------0-----------0------------|
gb|-------9b11b9-7-------------7---6---------------6h7---7----------|
db|----------------9~~~~--------------------------------------7-----|
Ab|-------------------------/9-----0-------------0------------------|
Bb|-0-------------------------------------------------------------0-|

eb|--------10p0-----------------------------9p0---0-----------------|
bb|-0------------10-10/12--1210-------------------------------------|
gb|-----0----------------------12~~~----------------9/11--11p9------|
db|---------------------------------8-------------------------12~~~~|
Ab|-------------------------------------9---------------------------|
Bb|-8-----8-----8-----------------0-7-----7-----7-------------------|

eb|--------10-9-7---------------------------------------------------|
bb|---------------7---------------0---------0-----------------------|
gb|-----------------------------7---6---------------7---7-9b11-9~~--|
db|----------------------------------------------7h9--9-------------|
Ab|--------------------------/9-----0-------------------------------|
Bb|-0-------------------------------------------------------------0-|

eb|--------10p0-------------------------------9p0---0---------------|
bb|-0------------10-10/12-12p10-------------------------------------|
gb|-----0----------------------12~~--------------------9/11~~~~~~~~~|
db|-----------------------------------8-----------------------------|
Ab|---------------------------------------9-------------------------|
Bb|-8-----8----8--------------------0-7-----7-----8-----------------|


Pre-verse
eb|-----------------------------------------------------------------|
bb|-----------------------------------------------------------------|
gb|---------0---------------0---------------0---------------0-------|
db|---4-------4---4---4-------4---4---4-------4---4---4-------4---4-|
Ab|-----5-------5-------5-------5-------5-------5-------5-------5---|
Bb|-3-----3---------5-----5---------0-----0---------0-----0---------|

eb|-----------------------------------------------------------------|
bb|---------------------------------------------------------0-------|
gb|---------0---------------0---------------0-----------------0-----|
db|---4-------4---4---4-------4---4---4-------4---4---4---------4---|
Ab|-----5-------5-------5-------5-------5-------5-------5---------5-|
Bb|-3-----3---------5-----5---------0-----0---------0-----0---------|

Verse 1
eb|-----------------------------------------------------------------|
bb|-----------------------------------------------------------------|
gb|---------0---------------0---------------0---------------0-------| x3
db|---4-------4---4---4-------4---4---4-------4---4---4-------4---4-|
Ab|-----5-------5-------5-------5-------5-------5-------5-------5---|
Bb|-3-----3---------5-----5---------0-----0---------0-----0---------|

eb|-----------------------------------------------------------------|
bb|---------------------------------------------------------0-------|
gb|---------0---------------0---------------0-----------------0-----|
db|---4-------4---4---4-------4---4---4-------4---4---4---------4--/|
Ab|-----5-------5-------5-------5-------5-------5-------5---------5/|
Bb|-3-----3---------5-----5---------0-----0---------0-----0---------|

Pre-chorus
eb|---------0---------------0---------------------------------------|
bb|-----------0---------------0-------------------------------------|
gb|-------------0---------------0-----------0---------------0-------|x2
db|/--11---------11\--9-----------9---4-------4---4---4-------4---4/|
Ab|/----12---------\----10--------------5-------5-------5-------5--/|
Bb|/10----10-------\8-----8---------0-----0---------0-----0--------/|

eb|---------0---------------0-------0-------------------------------|
bb|-----------0---------------0-----0-------------------------------|
gb|-------------0---------------0---6-------------------------*7*7--|
db|/--11---------11\--9-------------8-------------------------*7*7--|
Ab|/----12---------\----10----------9-------------------------*5*5--|
Bb|-10----10-------\8-----8---------7-------------------------------|

Chorus
          (Slide the notes to the next chords)
Dsus2             ///     E5sus4
 Fallinging and it won't be long
                   Bm/B
 The skin on me is burning
                     Gmajadd6
 By the fires of the sun
                        Dsus2
 On skinned   knees I'm Bleeding
                     E5sus4
 And  it  won't  be   long
                       Bm/B
 I've got to find that meaning
                        Gmajadd6
 And I'll search for so long

Verse
Pre-chorus
Chorus
Bridge
     set 'em free   all            Relying on their will To make me
eb|-----------------------------------------------------------------|
bb|-----------10~~~~------------------------------------------------|
gb|---------------------------------4-4-4-4-6-6-6-6-7-7-7-7-9-9-9-9-|
db|-11111112--------9-9-9-10--9-----x-x-x-x-x-x-x-x-x-x-x-x-x-x-x-x-|
Ab|-0-0-0-0---------10101010--10----2-2-2-2-4-4-4-4-5-5-5-5-7-7-7-7-|
Bb|(10)-------------8-8-8-8---8---0---------------------------------|

    all that I am      And all I'll be
eb|-----------------------------------------------------------------|
bb|-----------10~~~~------------------------------------------------|
gb|-------------------------------444---------444---------444-------|
db|-11111112--------9-9-9-10--9---xxx---------xxx---------xxx-------|
Ab|-0-0-0-0---------10101010--10--222---------222---------222-------|
Bb|(10)-------------8-8-8-8---8-------0-----0-----0-----0-----0---0-|

     set 'em free   all   we'll fall between the cracks With memories of
                                                               PH
eb|-----------------------------------------------------------------|
bb|-----------10~~~~------------------------------------------------|
gb|-----------------------------------------------------------------|
db|-11111112--------9-9-9-10--9---\---------4-5~~~4p2---2-4-5-420---|
Ab|-0-0-0-0---------10101010--10--\-----0h2----------------------420|
Bb|(10)-------------8-8-8-8---8---\-0h3-----------------------------|

     all that  I  am  and all I'll be        On broken wings I'm fall-
eb|-------------------------------------------------------------------|
bb|-----------10~~~~--------------------------------------------------|
gb|-------------------------------6/7-7-7-----------------1111111112\-|
db|-11111112--------9-9-9-10--9---6/7-7-7---9-9-9-9-111111111111x-x---|
Ab|-0-0-0-0---------10101010--10--4/5-5-5---9-9-9-9-9-9-9-9-9-9-9/10\-|
Bb|(10)-------------8-8-8-8---8-------------7-7-7-7-7-7-7-7-----------|
Chorus


Outro
eb|-----------------------------------------------------------------|
bb|-----------------------------------------------------------------|
gb|-----------------------------------------------------------------|
db|-----------------------------------------------------------------|
Ab|-2~~~~~~~~~~~~~~~---------------0--------------------------------|
Bb|-0---------------------------------------------------------------|

eb|-----------------------------------------------------------------|
bb|-------10---------------------0---------0-----------0------------|
gb|-------9b11b9-7-------------7---6---------------6h7---7----------|
db|----------------9~~~~--------------------------------------7-----|
Ab|-------------------------/9-----0-------------0------------------|
Bb|-0-------------------------------------------------------------0-|

eb|--------10p0-----------------------------9p0---0-----------------|
bb|-0------------10-10/12--1210-------------------------------------|
gb|-----0----------------------12~~~----------------9/11--11p9------|
db|---------------------------------8-------------------------12~~~~|
Ab|-------------------------------------9---------------------------|
Bb|-8-----8-----8-----------------0-7-----7-----7-------------------|

eb|--------10-9-7---------------------------------------------------|
bb|---------------7---------------0---------0-----------------------|
gb|-----------------------------7---6---------------7---7-9b11-9~~--|
db|----------------------------------------------7h9--9-------------|
Ab|--------------------------/9-----0-------------------------------|
Bb|-0-----------------/12-----------------------------------------0-|
                                                             rit.
eb|--------10p0-------------------------------9p0---0---------------|
bb|-0------------10-10/12-12p10-------------------------------------|
gb|-----0----------------------12~~--------------------9/11~~~~~~~~~|
db|-----------------------------------8-----------------------------|
Ab|---------------------------------------9-------------------------|
Bb|-8-----8----8--------------------0-7-----7-----8-----------------|

eb|--------------------------------------------------0---------------|
bb|-----------------------11-12-14p12p11-12--11-------------14-------|
gb|------------------11-12-----------------12--11-12---9/11----------|
db|----------11-12-14------------------------------------------------|
Ab|------------------------------------------------------------------|
Bb|-0----------------------------------------------------------------|


Chords
Dsus2: -00230
E5sus4: -07650
Bm/B: 024432
Gmajadd6:-55430


7.- In loving memory
Tuning: Eb,Ab,Db,Gb,Bb,eb

Intro
Line 1
eb--------------------------------------------------------------------------|
Bb-7--8p7--7---5---5h7p5-0---------------3------3/5-3---5-----3h5----5----7-|
Gb—(0)------(0)—(0)-------0---2h4p2p0--------0-------0---0-------------(0)--|
Db-------------------------------------4---0-----------0---0--(0)-----------|
Ab-7--7----7---5---5-------(0)---------------------------------------5----7-|
Eb--------------------------------------------------------------------------|
Line 2
eb----------------------------|
Bb-12------15-13---12---13----|
Gb----(0)---------------------|
Db-------------------------14-|
Ab-0-----0----------0---------|
Eb----------------------------|

Reapeat Line 1

Line 2                       
eb----------7---8p7---10-----<7>-|
Bb-8------8---8-----8--------<7>-|
Gb------7--------------------<7>-|
Db-------------------------------|
Ab-0-----------------------------|
Eb-------------------------------|


Verse 1 & Verse 2
   D           Bm7/11          D       Cadd9
eb-2-------------2-------------2---------3---|
Bb-3-------------3-------------3---------3---|
Gb-2---2h4p2p0---4-------------2---------0---| x4
Db-0-------------0---2h4p2p0---0---------2---|
Ab-0---------------------------0---0h2---3---|
Eb-------------------------------------------|

D                        Bm7/11
Thanks for all you've done
D                              Cadd9
I've missed you for so long, I can't believe you're gone
D                 Bm7/11
You still live in me
D                           Cadd9
I feel you in the wind, You guide me constantly
D                                 Bm7/11
I've never knew what it was to be alone, no
D                                                         Cadd9
Cause you were always there for me, You were always there waiting
D                                 Bm7/11
And ill come home and I miss your face so
D                     Cadd9
Smiling down on me, I close my eyes to see

Chorus
      G              D                         Em        C
And I know, you're a part of me, And it's your song that sets me free
          G              D                       Em          Cadd9
I sing it while I feel I can't hold on, I sing tonight cause it comforts me

Then play:
   D           Bm7/11          D       Cadd9
eb-2-------------2-------------2---------3---|
Bb-3-------------3-------------3---------3---|
Gb-2---2h4p2p0---4-------------2---------0---| x1
Db-0-------------0---2h4p2p0---0---------2---|
Ab-0---------------------------0---0h2---3---|
Eb-------------------------------------------|

Verse 3 & Verse 4 (exactly the same)

   D           Bm7/11          D       Cadd9
eb-2-------------2-------------2---------3---|
Bb-3-------------3-------------3---------3---|
Gb-2---2h4p2p0---4-------------2---------0---| x4
Db-0-------------0---2h4p2p0---0---------2---|
Ab-0---------------------------0---0h2---3---|
Eb-------------------------------------------|

I carry the things that remind me of you, In loving memory of
The one that was so true, Your were as kind as you could be
And even though you're gone, You still mean the world to me
I've never knew what it was to be alone, no,
Cause you were always there for me, You were always there waiting
But now I come home and it's not the same, no
It feels empty and alone, I can't believe you're gone


Chorus
      G              D                         Em        C
And I know, you're a part of me, And it's your song that sets me free
          G              D                       Em          Cadd9
I sing it while I feel I can't hold on, I sing tonight cause it comforts me

Bridge

D                             C       D                        C
I'm glad he set you free from sorrow, I'll still love you more tomorrow
D                            G
And you will be here with me still
D                             C        D                        C
And what you did you did with feeling, And You always found the meaning
D              G     D              G     D              D#   D  G
And you always will, And you always will, And you always will

Then play
   D           Bm7/11          D       Cadd9
eb-2-------------2-------------2---------3---|
Bb-3-------------3-------------3---------3---|
Gb-2---2h4p2p0---4-------------2---------0---| x2
Db-0-------------0---2h4p2p0---0---------2---|
Ab-0---------------------------0---0h2---3---|
Eb-------------------------------------------|

Chorus
      G              D                         Em        C
And I know, you're a part of me, And it's your song that sets me free
          G              D                       Em          Cadd9
I sing it while I feel I can't hold on, I sing tonight cause it comforts me

End: Reapet intro




8.-Down to my last
Intro / Verse / Pre chorus
   A                              E
eb-------------------------------------------------------------|
Bb-------------------------------------------------------------|
Gb-------------------------------------------------------------|
Db-11-11-11h12-(12)/14-14-12-11--------------------------------|
Ab-0--0--0--0—-(0)--0--0--0--0----11-11-11h12-(12)/14-14-12-11-|
Eb--------------------------------0--0--0--0—-(0)--0--0--0--0--|

   D               Dsus2 D   A           Asus4          A
eb--------------------------------------------------------------|
Bb--------------------------------------------------------------|
Gb-11-11--9-11-11—-7h9p7p6---14-14-14-14-14-14-14-14-14-14------|
Db-0--0---0-0--0---0.....0---11-11-11/12-12-12-12-12-12\11\(11)-|
Ab-0--0---0-0--0---0.....0---0--0--0-----0--0--0--0--0--0-------|
Eb--------------------------------------------------------------|

Chorus (both guitars) (play twice)
But i´m down....Last......s_tand......Alone........
eb-------------------------------------------------|
Bb-------------------------------------------------|
Gb-6-------------11----------7--------6--------7---|
Db-7-------------11----------7--------7--------7---|
Ab-7-------------9-----------5--------4--------5---|
Eb-5-------------------------------------------5---|

Solo (play by Mark while the other guy plays the chorus on the back)
(is not perfect but is a basic idea)
eb-----------------------------------------------------15-|
Bb-14-14-14h15/17-17-15-14--12-12-14h15-12h14h15-10/12----|
Gb--------------------------------------------------------|
Db--------------------------------------------------------|
Ab--------------------------------------------------------|
Eb--------------------------------------------------------|

eb-------12h15p14p12-     eb-----------------------|
Bb-12h14-------------     Bb-12/13-12/15-12/17-17b-|
Gb------------------- x4  Gb-----------------------|
Db-------------------     Db-----------------------|
Ab-------------------     Ab-----------------------|
Eb-------------------     Eb-----------------------|

eb----------------------------------------------------------------------------|
Bb-12-14-15/17-14-15/17-15h17p15-14h15p14-15h17p15-14h15p14-15h17p15-14h15p14-|
Gb----------------------------------------------------------------------------|
Db----------------------------------------------------------------------------|
Ab----------------------------------------------------------------------------|
Eb----------------------------------------------------------------------------|

eb-------12--------------------------------------------------------|
Bb-12/14----14-14\12—12h14p12\10-10h12p10\9-12h14p12\10-10h12p10\9-|
Gb-----------------------------------------------------------------|
Db-----------------------------------------------------------------|
Ab-----------------------------------------------------------------|
Eb-----------------------------------------------------------------|

eb------------------|
Bb-10-10-9-9-9-7...-|
Gb------------------|
Db------------------|
Ab------------------|
Eb------------------|


9.-Watch your words
Intro (play twice)
eb|-----------------------------------------------------------------|
bb|-----------------------------------------------------------------|
gb|-----------------------------------------------------------------|
Db|-------------------------------------131213------8-10-8----------|
Ab|-----6-5-6-------8-10-6--5-------------------------------8-10-6--|
Db|-0-----------0---------------0---0-----------0-------------------|
                                                               PH.|
eb|----------------------------------------------------------------:|
bb|----------------------------------------------------------------:|
gb|----------------------------------------------------------------:|
Db|-------------------------------------131213------8-10-8---------:|
Ab|-----6-5-6-------8-10-6--5-------------------------------7-8-4~~:|
Db|-0-----------0---------------0---0-----------0------------------:|
            PM........|     PM..|           PM........|     PM..|
eb|-----------------------------------------------------------------|
bb|-----------------------------------------------------------------|
gb|-----------------------------------------------------------------|
Db|-0-------x---0-0-0---6---0-0-5-6-0-------x---0-0-0---6---0-0-5-6-|
Ab|-0-------x---0-0-0---6---0-0-5-6-0-------x---0-0-0---6---0-0-5-6-|
Db|-0-------x---0-0-0---6---0-0-5-6-0-------x---0-0-0---6---0-0-5-6-|
               PM..|           PM..|
eb|------------------------------------------------|
bb|------------------------------------------------|
gb|------------------------------------------------|
Db|-1-------0-0-0-0-5-----5-0-0-0-0-12----121210---|
Ab|-1-------0-0-0-0-5-----5-0-0-0-0-8-----8-8-8----|
Db|-1-------0-0-0-0-5-----5-0-0-0-0-8-----8-8-8----|
                                                                PH..|
eb|-----------------------------------------------------------------|
bb|-----------------------------------------------------------------|
gb|-----------------------------------------------------------------|
Db|-------------------------------------131213------8-10-8----------|
Ab|-----6-5-6-------8-10-6--5-------------------------------7-8-4~~-|
Db|-0-----------0---------------0---0-----------0-------------------|

Verse
            PM........|     PM..|            PM.......|     PM..|
eb|-----------------------------------------------------------------|
bb|-----------------------------------------------------------------|
gb|-----------------------------------------------------------------|
Db|-0-------x---0-0-0---6---0-0-5-6-0-------x---0-0-0---6---0-0-5-6-|
Ab|-0-------x---0-0-0---6---0-0-5-6-0-------x---0-0-0---6---0-0-5-6-|
Db|-0-------x---0-0-0---6---0-0-5-6-0-------x---0-0-0---6---0-0-5-6-|
                PM..|           PM..|
eb|------------------------------------------------|
bb|------------------------------------------------|
gb|------------------------------------------------|
Db|-1-------0-0-0-0-5-----5-0-0-0-0-12----121210---|
Ab|-1-------0-0-0-0-5-----5-0-0-0-0-8-----8-8-8----|
Db|-1-------0-0-0-0-5-----5-0-0-0-0-8-----8-8-8----|

eb|-----------------------------------------------------------------|
bb|-----------------------------------------------------------------|
gb|-----------------------------------------------------------------|
Db|-------------------------------------131213------8-10-8----------|
Ab|-----6-5-6-------8-10-6--5-------------------------------7-8-4~~-|
Db|-0-----------0---------------0---0-----------0-------------------|
            PM........|     PM..|               PM.|        w/bar
eb|-----------------------------------------------------------------|
bb|-----------------------------------------------------------------|
gb|------------------------------------------------*5---------------|
Db|-0-------x---0-0-0---6---0-0-5-6-0-------x---0-0-----------------|
Ab|-0-------x---0-0-0---6---0-0-5-6-0-------x---0-0-----------------|
Db|-0-------x---0-0-0---6---0-0-5-6-0-------x---0-0-----------------|


               PM..|           PM..|
eb|------------------------------------------------|
bb|------------------------------------------------|
gb|------------------------------------------------|
Db|-1-------0-0-0-0-5-----5-0-0-0-0-12----121210---|
Ab|-1-------0-0-0-0-5-----5-0-0-0-0-8-----8-8-8----|
Db|-1-------0-0-0-0-5-----5-0-0-0-0-8-----8-8-8----|
                                                                PH..|
eb|-----------------------------------------------------------------|
bb|-----------------------------------------------------------------|
gb|-----------------------------------------------------------------|
Db|-------------------------------------131213------8-10-8----------|
Ab|-----6-5-6-------8-10-6--5-------------------------------7-8-4~~-|
Db|-0-----------0---------------0---0-----------0-------------------|


Pre-chorus
                     w/bar
eb|-0-------0-----0-----------------3-------3-----3-3-3-3-------3-3-|
bb|-10------10----10----------------6-------6-----6-6-5-5-------5-5-|
gb|-11------11----11----------------5-------5-----5-5-5-5-------5-5-|
Db|-12------12----12----------------3-------3-----3-3-3-3-------3-3-|
Ab|-12------12----12----------------3-------3-----3-3-3-3-------3-3-|
Db|-0-------0-----0-----------------3-------3-----3-3-3-3-------3-3-|
                        \\\\\\\-7
eb|-3-----3-x-x-0-----------0-0---x-1-----1-x-1-3-------3-3-3/5-5-5-|
bb|-3-----3-x-x-0-----------0-0-0-x-4-----4-x-4-6-------6-6-6/8-8-8-|
gb|-5-----5-x-x-4-----------4-4-0-x-3-----3-x-3-5-------5-5-5/7-7-7-|
Db|-5-----5-x-x-5-----------5-5-0-x-1-----1-x-1-3-------3-3-3/5-5-5-|
Ab|-3-----3-x-x-5-----------5-5-0-x-1-----1-x-1-3-------3-3-3/5-5-5-|
Db|-3-----3-x-x-----------------------------------------------------|

eb|-0-------0-----0-0-0-0-----------3-------3-----------3---------3-|
bb|-7-------7-----7-7p5-5-----------6-------6-----6-6-5-5-----6-6-6-|
gb|-7-------7-----7-7-7-7-----------5-------5-----5-5-5-5-----5-5-5-|
Db|-7-------7-----7-7-7-7-----------3-------3-----3-3-3-3-----3-3-3-|
Ab|-0-------0-----0-0-0-0-----------3-------3-----3-3-3-3-----3-3---|
Db|-0-------0-----0-0-0-0-----------3-------3-----3-3-3-3-----3-3---|

eb|-3-----3-x-x-0-------------------1-----1-1/3-3-----------3/5-5-5-|
bb|-3-----3-x-x-0-------------------4-----4-4/6-6-----------6/8-8-7-|
gb|-5-----5-x-x-4-------------------3-----3-3/5-5-----------5/7-7-7-|
Db|-5-----5-x-x-5-------------------1-----1-1/3-3-----------3/5-5-5-|
Ab|-3-----3-x-x-5-------------------1-----1-1/3-3-----------3/5-5-5-|
Db|-----------------------------------------------------------------|

eb|-0--------------------------------|
bb|-7--------------------------------|
gb|-7-----------------------*7*7*5*5-|
Db|-7-----------------------*7*7*5*5-|
Ab|-0-----------------------*7*7*5*5-|
Db|-0--------------------------------|

Chorus
eb|-----------------------------------------------------------------|
bb|-----------------------------------------------------------------|
gb|-5-------5-----5-5-5-5-----5-5-5-5-----5-5-5-7-----7-7-7-7---7-7-|
Db|-3-------3-----3-3-3-3-----3-3-3-5-----5-5-5-5-----5-5-5-5---5-5-|
Ab|-3-------3-----3-3-3-3-----3-3-3-3-----3-3-3-5-----5-5-5-5---5-5-|
Db|-3-------3-----3-3-3-3-----3-3-3-------------5-----5-5-5-5---5-5-|

eb|-----------------------------------------------------------------|
bb|-----------------------------------------------------------------|
gb|-7-----7-7-----------14\10--9-7-5-7-7~~~~----------------5b7b5~~~|
Db|-0-----0-x---0-0-----x------x-x-x-x-0------0-----7\5-3p0---------|
Ab|-0-----0-5---0-0-----12\8---7-5-3-5-5~~~~--0---------------------|
Db|-0-----0-----0-0---------------------------0---------------------|

eb|-----------------------------------------------------------------|
bb|-----------------------------------------------------------------|
gb|-5-------5-----5-5-5-5-----5-5-5-5-----5-5-5-7-----7-7-7-7-5-----|
Db|-3-------3-----3-3-3-3-----3-3-3-5-----5-5-5-5-----5-5-5-5-3-----|
Ab|-3-------3-----3-3-3-3-----3-3-3-3-----3-3-3-5-----5-5-5-5-3-----|
Db|-3-------3-----3-3-3-3-----3-3-3-------------5-----5-5-5-5-3-----|

eb|---------------------------------|
bb|---------------------------------|
gb|-7-----7-7---------------8-7-7-7-|
Db|-0-----0-x-0-0-----0-----x-x-x-x-|
Ab|-0-----0-5-0-0-----0-----6-5-5-5-|
Db|-0-----0---0-0-----0-------------|
                                                                PH..|
eb|-----------------------------------------------------------------|
bb|-----------------------------------------------------------------|
gb|-----------------------------------------------------------------|
Db|-------------------------------------131213------8-10-8----------|
Ab|-----6-5-6-------8-10-6--5-------------------------------7-8-4~~-|
Db|-0-----------0---------------0---0-----------0-------------------|

Verse

Pre-chorus

Chorus
eb|-----------------------------------------------------------------|
bb|-----------------------------------------------------------------|
gb|-5-------5-----5-5-5-5-----5-5-5-5-----5-5-5-7-----7-7-7-7---7-7-|
Db|-3-------3-----3-3-3-3-----3-3-3-5-----5-5-5-5-----5-5-5-5---5-5-|
Ab|-3-------3-----3-3-3-3-----3-3-3-3-----3-3-3-5-----5-5-5-5---5-5-|
Db|-3-------3-----3-3-3-3-----3-3-3-------------5-----5-5-5-5---5-5-|

eb|-----------------------------------------------------------------|
bb|----------------------------------------------------------6b8----|
gb|---------8-8-8-8---------7b8-7b8-----------8\7-7-7---5750-----5p2|
Db|-0-----0-x-x-x-x---0---0-x---x-----0-0-0-0-x---x-x---------------|
Ab|-0-----0-6-6-6-6---0---0-5b6-5b6---0-0-0-0-6\5-5-5---------------|
Db|-0-----0-----------0---0-----------0-0-0-0-----------------------|

eb|-----------------------------------------------------------------|
bb|-----------------------------------------------------------------|
gb|-5-------5-----5-5-5-5-----5-5-5-5-----5-5-5-7-----7-7-7-7-7-7-5-|
Db|-3-------3-----3-3-3-3-----3-3-3-5-----5-5-5-5-----5-5-5-5-5-5-3-|
Ab|-3-------3-----3-3-3-3-----3-3-3-3-----3-3-3-5-----5-5-5-5-5-5-3-|
Db|-3-------3-----3-3-3-3-----3-3-3-------------5-----5-5-5-5-5-5-3-|

eb|---------------------------------|
bb|---------------------------------|
gb|---------7-7-7-7---------8-7-7-7-|
Db|-0-----0-x-x-x-x-0---0-0-x-x-x-x-|
Ab|-0-----0-5-5-5-5-0---0-0-6-5-5-5-|
Db|-0-----0---------0---0-0---------|

Bridge
eb|-----------------------------------------------------------------|
bb|-----------------------------------------------------------------|
gb|-----------------------------------------------------------------|
Db|---------------------------7-------------------------------------|
Ab|-8-5---5---5-8-5---5---5-6---6-5-8-5---5---5-8-5---5---5-6-~~~~~-|
Db|-----0---0-------0---0---------------0---0-------0---0-----------|
                                                        PH.....|
eb|-------------------------------------------------------------------|
bb|-------------------------------------------------------------------|
gb|---------------------------------------------5---------------------|
Db|---------------------------7-------------------7-8---7-------------|
Ab|-8-5---5---5-8-5---5---5-6---6-5-8-5---5---5-------8---5-6-~~~~----|
Db|-----0---0-------0---0---------------0---0-------------------------|
eb|-------------------------------------------------------------------|
bb|-------------------------------------------------------------------|
gb|-------------------------------------------------------------------|
Db|-------------------------------------------------------------------|
Ab|-------5-6-5-------3-5-3-------5-6-5-8-5-5-6-3-5-------------------|
Db|-0-----------0-----------0-----------------------------------------|

eb|-------------------------------------------------|
bb|-------------------------------------------------|
gb|-------------------------------------------------|
Db|-------------------------------------------------|
Ab|-------5-6-5-------3-5-3-------5-6-5-8-5-5-6-3-5-|
Db|-0-----------0-----------0-----------------------|

eb|-------------------------------------------------|
bb|-------------------------------------------------|
gb|-------7-8-7-------5-7-5-------7-8-7/108-7-8-5-7-|
Db|-------x-x-x-------x-x-x-------x-x-x-x-x-x-x-x-x-|
Ab|-------5-6-5-------3-5-3-------5-6-5/8-6-5-6-3-5-|
Db|-0-----------0-----------0-----------------------|
                              |__3_|
eb|-----------------------------------------------------------------|
bb|-----------------------------------------------------------------|
gb|-------7-7-7-------7-7-7--8-8-8-8--------7-7-7-----8---7-14121212|
Db|-------x-x-x-------x-x-x--x-x-x-x--------x-x-x-----x---x-x-x-x-x-|
Ab|-------5-5-5-------5-5-5--6-6-6-6--------5-5-5-----6---5-12101010|
Db|-0-----------0-----------0-------0-------------0-----0-----------|
                        PM..|
eb|-0-------0-----0-0-0---0-----------------------------------------|
bb|-x-------x-----x-x-x---x-----------------------------------------|
gb|-7-------7-----7-7-7---7-----7---5-------5-----5-5-5-5-----5-5-5-|
Db|-7-------7-----7-7-7---7-----5---3-------3-----3-3-3-3-----3-3-3-|
Ab|-5-------5-----5-5-5---5-0-0-5---3-------3-----3-3-3-3-----3-3-3-|
Db|-0-------0-----0-0-0---0-0-0-5---3-------3-----3-3-3-3-----3-3-3-|
                                        PM..|
eb|-----------------------------------------------------------------|
bb|-----------------------------------------------------------------|
gb|-5----/7\5---4-----4-4-4-4---4-4-3-----3-----5-----5-5-5-5-7-----|
Db|-x-----------5-----5-5-5-5---5-5-3-----3-----3-----x-x-x-3-5---5-|
Ab|-3----/5\3p0-2-----2-2-2-2---2-2-1-----1-0-0-3-----3-3-3-3-5---5-|
Db|-----------------------------------------0-0-3-----------3-5---5-|

eb|-----------------------------------------------------------------|
bb|-----------------------------------------------------------------|
gb|---------7-7-------7-7-7-----7---5-------5-----5-5-5-5-----5-5-5-|
Db|-0-----0-x-x---0-0-0-x-x-0---5---3-------3-----3-3-3-3-----3-x-x-|
Ab|-0-----0-5-5---0-0-5-5-5-0---5---3-------3-----3-3-3-3-----3-3-3-|
Db|-0-----0-------0-0-0-----0---5---3-------3-----3-3-3-3-----3-----|

eb|-----------------------------------------------------------------|
bb|-----------------------------------------------------------------|
gb|-5----/7\5---4-----4-4-4-4---4-4-3-----3-3-3-5-----5-5-5-5-7-----|
Db|-------------5-----5-5-5-5---5-5-3-----3-3-3-3-----3-3-3-3-5---5-|
Ab|-3----/5\3p0-2-----2-2-2-2---2-2-1-----1-1-1-3-----3-3-3-3-5---5-|
Db|---------------------------------------------3-----3-3-3-3-5---5-|

bb|---------------------------------|
gb|---------------------------------|
Db|---------------------------------|
Ab|-0-0-0-0-0-0-0-0-000-0-0-0-0-0-0-|
Db|-0-0-0-0-0-0-0-0-000-0-0-0-0-0-0-|

eb|-----------------------------------------------------------------|
bb|-----------------------------------------------------------------|
gb|-5-------5-----5-5-5-5-----5-5-5-5-----5-5-5-7-----7-7-7-7---7-7-|
Db|-3-------3-----3-3-3-3-----3-3-3-5-----5-5-5-5-----5-5-5-5---5-5-|
Ab|-3-------3-----3-3-3-3-----3-3-3-3-----3-3-3-5-----5-5-5-5---5-5-|
Db|-3-------3-----3-3-3-3-----3-3-3-------------5-----5-5-5-5---5-5-|
                                     PM.|           PM..|
eb|-----------------------------------------------------------------|
bb|-----------------------------------------------------------------|
gb|---------8-7-7-7-7-7-8/1010/128-8-7~~----8-7-------------7bbbbb8-|
Db|-0---0-0-x-x-0-0-x-x-x---x----x-x-x--0-0-8-7---0---------x-------|
Ab|-0---0-0-6-5-0-0-5-5-6/8-8-/106-6-5~~0---6-5---0-----0-0-5bbbbb6-|
Db|-0---0-0-----0-0---------------------0---------0-----0-0---------|

eb|-----------------------------------------------------------------|
bb|-----------------------------------------------------------------|
gb|-5-------5-----5-5-5-5-----5-5-5-5-----5-5-5-7-----7-7-7-7---7-7-|
Db|-3-------3-----3-3-3-3-----3-3-3-5-----5-5-5-5-----5-5-5-5---0-0-|
Ab|-3-------3-----3-3-3-3-----3-3-3-3-----3-3-3-5-----5-5-5-5---0-0-|
Db|-3-------3-----3-3-3-3-----3-3-3-------------5-----5-5-5-5---0-0-|
                                                   PS........
eb|-----------------------------------------------------------------|
bb|-----------------------------------------------------------------|
gb|-----------------------------------------------------------------|
Db|---------------------------7-------------------------------------|
Ab|-8-5---5---5-8-5---5---5-6---6-5-8-5---5---5-6-5---5\\\\\\\\\\\\-|
Db|-----0---0-------0---0---------------0---0-------0--\\\\\\\\\\\\\|

eb|-----------------------------------------------------------------|
bb|-----------------------------------------------------------------|
gb|-5---5-555-555-555-555-555-555-555-555-555-557-777-777-777---7-7-|
Db|-3---3-333-333-333-333-333-333-335-555-555-555-555-555-555---5-5-|
Ab|-3---3-333-333-333-333-333-333-333-333-333-335-555-555-555---5-5-|
Db|-3---3-333-333-333-333-333-333-333-----------5-555-555-555---5-5-|

eb|-------------------------------------------------|
bb|-------------------------------------------------|
gb|-------------------------------------------------|
Db|-------------------------------------------------|
Ab|-------5-6-5-------3-5-3-------5-6-5-8-5-5-6-3-5-|
Db|-0-----------0-----------0-----------------------|

eb|-------------------------------------------------|
bb|-------------------------------------------------|
gb|-------------------------------------------------|
Db|-------------------------------------------------|
Ab|-------5-6-5-------3-5-3-------5-6-5-8-5-5-6-3-5-|
Db|-0-----------0-----------0-----------------------|

eb|-------------------------------------------------|
bb|-------------------------------------------------|
gb|-------7-8-7-------5-7-5-------7-8-7/108-7-8-5-7-|
Db|-------x-x-x-------x-x-x-------x-x-x-x-x-x-x-x-x-|
Ab|-------5-6-5-------3-5-3-------5-6-5/8-6-5-6-3-5-|
Db|-0-----------0-----------0-----------------------|

eb|-----------------------------------------------------------------|
bb|-----------------------------------------------------------------|
gb|-------7-7-7-------7-7-7--8-8-8-8--------7-7-7-----8-----1412~~~~|
Db|-------x-x-x-------x-x-x--x-x-x-x--------x-x-x-----x-----x-x-----|
Ab|-------5-5-5-------5-5-5--6-6-6-6--------5-5-5-----6-----1210~~~~|
Db|-0-----------0-----------0-------0-------------0-----0-0---------|

eb|---------|
bb|---------|
gb|-7\\\2---|
Db|-7\\\0---|
Ab|-0-------|
Db|-0-------|

10.-Shed my skin
Tuning: Drop-D one whole step down (low to high - CGCFAD)

Intro, clean w/ fingers
d|------------------------------------------------------------------0--------|
A|--------------------------------------------------------------------0------|
F|-----------------------------------------0-------0--------------7-----7----|
C|-9--7----4h5-4-----------4/2~--0h2h4---4---4---4—--(4)/-------7---------7--|
G|----------------0--------------------2-------2-----(2)/-----5--------------|
C|-5--5--0-0---0----0----0----------------------------------5----------------|

Verse
d|---------------------------------------------------------------0--------|
A|-----------------------------------------------------------------0------|
F|--------------------------------------0-------0--------------7-----7----| x2
C|-9--7----4h5-4--------4/2~--0h2h4---4---4---4—--(4)/-------7---------7--|
G|----------------0-----------------2-------2-----(2)/-----5--------------|
C|-5--5--0-0---0----0-0----------------------------------5----------------|

d|-----------------------------------------------------------+12--|
A|-----------------------------------------------------------+12--|
F|--------------------------------------0-------0------------+12--|
C|-9--7----4h5-4--------4/2~--0h2h4---4---4---4—--(4)/---7--------|
G|----------------0-----------------2-------2-----(2)/---5--------|
C|-5--5--0-0---0----0-0----------------------------------5--------|

Pre-chorus, distortion w/ pick
d|---------------------------------------------------------------|
A|---------------------------------------------------------------|
F|--------/12—-11~-------------6—-7~---11-----7------------11~-/-|
C|--9--7---x---x---0--0--0-0---x--x----9------5----9--7----x-----|
G|--9--7--/10—-9~--0--0--0-0---4—-5~---9------5----9--7----9~--/-|
C|--9--7-----------0--0--0-0-0---------9------5----9--7—-0-------|

d|----------------------------------------------------------|
A|----------------------------------------------------------|
F|--14~-14-14\-11~-11--11\9~-9~--11-----7-------------------|
C|--x---x--x---x---x----x--------9------5-------------------|
G|--12~-12-12\-9~--9--0-9\7~-7~--9------5----9-4-0-4--5-4-5-|
C|-(0)--------(0)-----0----------9------5----9-4-0-4—-5-4-5-|
                                             . . . .  . . .
                                                light pm

Chorus - Distortion, listen for strumming
d|-----------------------------------------------------------|
A|-12------8------3----------------------3-------------------|
F|-11------7------2-------------12-11~\--2-------------6-7~/-|
C|-9-------5------0---0--0-0----x--x-----0---0--0-0----x-x---|
G|-9-------5------0---0--0-0--0-10-9~-\--0---0--0-0--0-4-5~/-|
C|-9-------5------0---0--0-0--0----------0---0--0-0--0-------|
                              .                      .

d|-----------------------------------------------------------|
A|-12------------------8------3------------------------------|
F|-11----6-6/7-7\6-6/7-7------2-------------12-11~---11--9---|
C|-9-----x-x---x---x---5------0---0--0-0----x--x-----9---7---|
G|-9-----4-4/5-5\4-4/5-5------0---0--0-0--0-10-9~----9---7---|
C|-9-------------------5------0---0--0-0--0----------9---7---|
                                          .
Pre-verse 2, clean w/ fingers

d|--0----5p0-----------------------------------0--------|
A|--7--------7-----------------------------------0------|
F|--7----------7--------0-------0------------7-----7----|
C|--0-----------------4---4---4---(4)/-----7---------7--|
G|--0---------------2-------2-----(2)/---5--------------|
C|--0----------------------------------5----------------|

Verse
Pre-chorus
Chorus

Bridge - Distortion
d|--------------------|
A|------------8-\-7---|
F|--6----4----7---7---|
C|--7----4----5---5---|  X 1
G|--4----2----5---5---|
C|------------5---5---|

Clean
d|--0--(0)--5p0------------0--0-0-0--0-0-0---------------------------|
A|--7—-(7)------7------7-7-5--5-5-5--5-5-5--8--8--8-8-7-7--5-5-7-----|
F|--7--(7)--------7----7-7-6--6-6-7--7-7-6--7--7--7-7-7-7--7-7-7-----|
C|--0--(0)-------------0-0-7--7-7-7--7-7-7--5--5--5-5-5-5--5-5-5-----|
G|--0--(0)-------------0-0-0--0-0-0--0-0-0--5--5--5-5-5-5--5-5-5-----|
C|--0--(0)-------------0-0------------------5--5--5-5-5-5--5-5-5-----|

d|--0--0--0-0-0-0--0-0-0--|
A|--7--7--7-7-5-5--8-8-7--|
F|--7--7--7-7-7-7--7-7-7--|
C|--0--0--0-0-0-0--0-0-0--|  X 2
G|--0--0--0-0-0-0--0-0-0--|
C|--0--0--0-0-0-0--0-0-0--|


Third time
d|--0------5p0------------0--0-0-0--0-0-0---------------------------|
A|--7—--7------7------7-7-5--5-5-5--5-5-5--8--8--8-8-7-7--5-5-5-----|
F|--7---7--------7----7-7-6--6-6-7--7-7-6--7--7--7-7-7-7--7-7-7-----|
C|--0---0-------------0-0-7--7-7-7--7-7-7--5--5--5-5-5-5--5-5-5-----|
G|--0---0-------------0-0-0--0-0-0--0-0-0--5--5--5-5-5-5--5-5-5-----|
C|--0---0-------------0-0------------------5--5--5-5-5-5--5-5-5-----|


Distortion kicks in:
d|-------------------------------------------------------|
A|--3--3--3-3-3-3--3-3-3---------------------------------|
F|--2--2--2-2-2-2--2-2-2------7---7---------7---11-12~-\-|
C|--0--0--0-0-0-0--0-0-0------x---x---------x---x--------|
G|--0--0--0-0-0-0--0-0-0--0-0-5-0-5---------5---9--10~-\-|
C|--0--0--0-0-0-0--0-0-0--0-0---0---0--0--0---0----------|
                          . .   .         .   .

Chorus Outro - Distortion

d|---------------------------------------------------|
A|--3—---(5)----8(7)---------------------------------|
F|--2—----6-----7---------7---7---------7---11-12~-\-|
C|--0-----7-----5---------x---x---------x---x--------|
G|--0—----0-----5-----0-0-5-0-5---------5---9--10~-\-|
C|--0-----------5-----0-0---0---0--0--0---0----------|
                      . .   .         .   .


Lead Fill - repeats every other time through the chord progression
            during the A chord (x0765X)

d|--10-9-7-------------------|
A|---------10-8-7—7h8p7------|
F|----------------------9—7~-|
C|---------------------------|
G|---------------------------|
C|---------------------------|



11.-The end is here
Tuning: Drop-D one whole step down (low to high - CGCFAD)

Intro
d|----22---20---18---18/20\18---17---17---15/17/18---17---15--|
A|------------------------------------------------------------|
F|----19---17---15---15/17\15---14---14---12/14/15---14---12--|
C|(0)----0----0----0----------0----0----0----------0----0-----|
G|------------------------------------------------------------|
C|------------------------------------------------------------|

d|----15/17\15---14---14--------------------------------------|
A|------------------------------------------------------------|
F|----12/14\12---11---11--------------------------------------|
C|--0----------0----0----0-0-0--------------------------------|
G|------------------------------------------------------------|
C|------------------------------------------------------------|


Pre-verse 1
d|-----------------------------------------------------------------|
A|-----------------------------------------------------------------|
F|--7--7-------9---10------7---7------6—-6--7-7/9---9-7---7-7/9-9--|
C|--x--x-------10--10------8---8------7—-7--x-x-----x-x—--x-x---10-|
G|--5--5-------7---8-------5---5------4—-4--5-5/7---7-5---5-5/7-7--|
C|--0--0--0-0--0---0---0-0-0---0--0-0-0—-0--0-0(0)--0-0---0-0-0-0--|

d|-----------------------------------------|
A|-------------------5h6p5-8-6-5-----------|
F|--10------7—--7----------------7-5-------|
C|--10------8---8--------------------8-7~~-|
G|--8-------5---5--0-----------------------|
C|--0—--0-0-0---0—-0-----------------------|


Verse 1
d|-----------------------------------------------------------------|
A|-----------------------------------------------------------------|
F|--7--7-------9---10------7---7------6—-6--7-7/9---9-7---7-7/9-9--|
C|--x--x-------10--10------8---8------7—-7--x-x-----x-x—--x-x---10-|
G|--5--5-------7---8-------5---5------4—-4--5-5/7---7-5---5-5/7-7--|
C|--0--0--0-0--0---0---0-0-0---0--0-0-0—-0--0-0(0)--0-0---0-0-0-0--|

d|------------------------------|
A|------------------------------|
F|--10------7—--7----6--6-6—-6/-|
C|--10------8---8----7—-7-7—-7/-|
G|--8-------5---5----4--4-4--4/-|
C|--0—--0-0-0---0—-0-0--0-0--0--|

Distortion kicks in:
d|---------------|
A|---------------|
F|---------------|
C|-x-0-3—--3-3---|
G|-x-0-3—--3-3---|
C|-x-0-3—--3-3---|

Chorus - Distortion
d|------------------------------------------------------------------|
A|--3--------10-10--------------------------------------------------|
F|--2----6----9--9----5----5b(1)r~--4-------------------------------|
C|--0----7----7--8----3----x--------5-------------------------------|
G|--0----4----7--8----3----3b(1)r---2------0-0-0-1b~---0-0-0-1b/----|
C|--0---------7--8----3--------------------0-0-0-1b~---0-0-0-1b/----|
                                        pm . . .    pm . . .


d|-------------------------------------------------------------------|
A|--3--------10-10---------------------------------------------------|
F|--2----6----9--9--------5----5b(1)r~--4----------------------------|
C|--0----7----7--8--------3----x--------5-------let ring----------0--|
G|--0----4----7--8—---0-0-3----3b(1)r---2-------------------------0--|
C|--0---------7--8----0-0-3---------------------------------------0--|
                   pm . .


Pre-verse 2 - clean, w/ pick

d|-----------------------------------------------------------------|
A|-----------------------------------------------------------------|
F|--7--7-------9---10------7---7------6—-6--7-7/9---9-7---7-7/9-9--|
C|--x--x-------10--10------8---8------7—-7--x-x-----x-x—--x-x---10-|
G|--5--5-------7---8-------5---5------4—-4--5-5/7---7-5---5-5/7-7--|
C|--0--0--0-0--0---0---0-0-0---0--0-0-0—-0--0-0(0)--0-0---0-0-0-0--|

d|------------------------------------------------|
A|------------------------------------------------|
F|--10------7—--7---------6-7-9~------------------|
C|--10------8---8-------7--------7p5-7~-----------|
G|--8-------5---5--0--5-----------------(7)/8-5~--|
C|--0—--0-0-0---0—-0------------------------------|


Verse 2 - same as verse 1, you can improvise fills similar to the
          previous ones

Chorus

Interlude - clean, w/ fingers

d|----22---20---18---18/20\18---17---17---15/17/18---17---15--|
A|------------------------------------------------------------|
F|----19---17---15---15/17\15---14---14---12/14/15---14---12--|
C|(0)----0----0----0----------0----0----0----------0----0-----|
G|------------------------------------------------------------|
C|------------------------------------------------------------|

d|----15/17\15---14---14--------|
A|------------------------------|
F|----12/14\12---11---11--------|
C|--0----------0----0----0-0-0--|   x 2
G|------------------------------|
C|------------------------------|

d|------------------------------------------------------------|
A|------------------------------------------------------------|
F|----19---17---15---15/17\15---14---14---12/14/15---14---12--|
C|------------------------------------------------------------|
G|----17---15---13---13/15\13---12---12---10/12/13---12---10--|
C|-------0----0----0----------0----0----0----------0----0-----|

d|------------------------------|
A|------------------------------|
F|----12/14\12--11---11---------|
C|------------------------------|   x 2
G|----10/12\10---9----9---------|
C|--0----------0----0----0-0-0--|

Distortion, w/ pick (all 0's palm muted)
d|-----------------------------------------------------------|
A|-----------------------------------------------------------|
F|----19----17----15----15/17-15----14----14----12/14-15-----|
C|----x-----x-----x-----x-----x-----x-----x-----x-----x------|
G|----17-00-15-00-13-00-13/15-13-00-12-00-12-00-10/12—13-00--|
C|-------00----00----00----------00----00----00----------00--|


d|------------------------------------|
A|------------------------------------|
F|--14----12----12/14-12----11----11--|
C|--x-----x-----x-----x-----x-----x---|   x 2
G|--12-00-10-00-10/12-10-00-9--00-9---|
C|-----00----00----------00----00-----|


w/ wah
d|-------------------------------------------------------------------|
A|-------------------------------------------------------------------|
F|----19~----17~----15~---15/17-15~----14~----14~----12/14-15~-------|
C|----x------x------x------x-----x------x------x------x-----x--------|
G|----17~----15~----13~---13/15-13~----12~----12~----10/12—13~-------|
C|-------------------------------------------------------------------|

d|------------------------------------------|
A|------------------------------------------|
F|--14~----12~----12/14-12~---11~----11~~---|
C|--x------x------x-----x-----x------x------|   x 1
G|--12~----10~----10/12-10~---9~-----9~~----|
C|------------------------------------------|


no wah
d|--------------------------------------------------------------|
A|--------------------------------------------------------------|
F|----19-----15-----17-----14-----15---12---15-----12-----11~~--|
C|----x------x------x------x------x----x----x------x------x-----|
G|----17-0-0-13-0-0-15-0-0-12-0-0-13-0-10-0-13-0-0—10-0-0-9~~---|
C|-------0-0----0-0----0-0----0-0----0----0----0-0----0-0-------|


Chorus - same as before

"Here" (4:04) - palm mute all 0's

d|--------------------------|
A|--------------------------|
F|--------------------------|
C|--------------------------|
G|--0-1b--0-1b--0-1b--0-1b--|
C|--0-1b--0-1b--0-1b--0-1b--|

d|-------------------------------------------------------|
A|-------------------------------------------------------|
F|-------------------------------------------------------|
C|------------------------------------------5~0-5~0------|
G|--0-0--0-3b--0-0--0-1b--0-0--0—3b--0-0--0---------5-3--|
C|--0-0--0-3b--0-0--0-1b--0-0--0-3b--0-0--0--------------|
                                            w/ wah
d|-------------------------------------------------------|
A|-------------------------------------------------------|
F|-------------------------------------------------------|
C|------------------------------------------5~0—0tr(1)---|
G|--0-0--0-3b--0-0--0-1b--0-0--0—3b--0-0--0--------------|
C|--0-0--0-3b--0-0--0-1b--0-0--0-3b--0-0--0--------------|
                                            w/ wah
comments
print report bad tab
4 comments total. Showing first comments.
0 reply
IamJonsCranium wrote on January 11 2005, 12:00 am

i thought Open their eyes was tuned dadadd

0 reply
AlanCart wrote on January 13 2005, 12:00 am

it is , and the tab for one day remains is way off, i havent looked at the rest

0 reply
marianoarnaiz wrote on January 13 2005, 12:00 am

it si tunned that way but i put it this way for those lazy guys like me that dont like to tune thier guitar weird ways

I want to post or [tab]
guest
You may want to rate the tab now too:
select rating
Please do not post tabs as comments. Select "correction" instead!