Oops, an error
Loading. Please wait.

One Day Remains Tab

ver3
ver3

Intro

Album

Whole song

Interactive

More versions @911Tabs.com
23,399 views 27 this week
6 commentsread comments
1 2 3 4 5
excellent!
x 13
Autoscroll
+/-
esc
set tempo
stop
Difficulty
intermediate
Hey! There's an official Ultimate Guitar app which is ideal
for learning songs when you're away from computer. Get the app
WARNING: You are trying to view
                                    content from Ultimate-Guitar.com
                                    in an unauthorized application,
                                    which is prohibited.

                                    Please use an official Ultimate
                                    Guitar Tabs application for iPhone,
                                    iPad or Android to access legitimate
                                    chords, guitar, bass, and drum tabs
                                    from Ultimate-Guitar.com database.

                                    Type "ultimate guitar tabs" in Apple
                                    App Store's or Android Market's
                                    search to find the application.
Tuning: Standard


Intro
gtr1
e|--------------------|
b|--------------------|
g|--------------------|
D|--------------------|
A|--0*12-*5--*12------|
E|-----------*12------|

drums kick in
gtr1
e|----------------------------------------------------------------|
b|----------------------------------------------------------------|
g|-14~~~~~~~~~~~~~~~~~~~~~~~~~~--\-9~~~~~~~~~~~~~~~~~~~~~~~~~~--\-|
D|-x-------------------------------x------------------------------|
A|-12~~~~~~~~~~~~~~~~~~~~~~------\-7~~~~~~~~~~~~~~~~~~~~~-------\-|
E|----------------------------------------------------------------|

gtr1    PH at neck pickup
e|----------------------------------------------------------------|
b|----------------------------------------------------------------|
g|-4---~~~~~~~~~~~~~~~~~~~~~~~~~~~~b5b4-~~~~~~~~~~~~~~~~~~~~------|
D|-x--------------------------------------------------------------|
A|-2~~~~~~~~~~~~~~~~~~~~~~~~~~~~~~-b3b2~~~~~~~~~~~~~~~~~~~~~~~~---|
E|----------------------------------------------------------------|

gtr1
e|----------------------------------------------------------------|
b|----------------------------------------------------------------|
g|-14~~~~~~~~~~~~~~~~~~~~~~~~~~---\9~~~~~~~~~~~~~~~~~~~~~~~~~~~-\-|
D|-x-------------------------------x------------------------------|
A|-12~~~~~~~~~~~~~~~~~~~~~~~~~~~~-\7~~~~~~~~~~~~~~~~~~~~~~~~~~--\-|
E|----------------------------------------------------------------|

gtr1                                     PS   (random shredding)
e|----------------------------------------------------------------|
b|-0--------------------------------------------------------------|
g|-4~~~~~~~~~~~~~~~~~~~~~~~~~~~~~~~~~~----------------------------|
D|-x------------------------------------\\\\\\\\\\\\\\\\\\\\\\\\\\|
A|-2~~~~~~~~~~~~~~~~~~~~~~~~~~~~~~~~----\\\\\\\\\\\\\\\\\\\\\\\\\\|
E|----------------------------------------------------------------|

preverse 1
gtr1  wah..........................................................
e|----------------------------------------------------------------|
b|----------------------------------------------------------------|
g|----------------------------------------------------------------|
D|----------------------------------------------------------------|
A|-----9-----9-----7-----7-----7-6-----7-----7-----6-----7-----6-4|
E|-0-5---0-5---0-5---0-5---0-5-----0-4---0-4---0-4---0-4---0-4----|

gtr1....................(wah)......................................
e|----------------------------------------------------------------|
b|----------------------------------------------------------------|
g|----------------------------------------------------------------|
D|----------------------------------------------------------------|
A|-2-0-2-6-2-0-2-0-2-6-2-0-2-6-2-0-2-0-2-6-2-0-2-6-2-4-2-0-2-4-2-0|
E|----------------------------------------------------------------|

gtr1wah............................................................
e|----------------------------------------------------------------|
b|----------------------------------------------------------------|
g|----------------------------------------------------------------|
D|----------------------------------------------------------------|
A|-----9-----9-----7-----7-----7-6-----7-----7-----6-----7-----6-4|
E|-0-5---0-5---0-5---0-5---0-5-----0-4---0-4---0-4---0-4---0-4----|

gtr1....................(wah)......................................
e|----------------------------------------------------------------|
b|----------------------------------------------------------------|
g|----------------------------------------------------------------|
D|----------------------------------------------------------------|
A|-2-0-2-6-2-0-2-0-2-6-2-0-2-6-2-0-2-0-2-6-2-0-2-6-2-4-2-0-2~~~~~~|
E|----------------------------------------------------------------|


verse 1
gtr1PM..............................................................
e|----------------------------------------------------------------|
b|----------------------------------------------------------------|
g|----------------------------------------------------------------|
D|----------------------------------------------------------------|
A|-----9-----9-----7-----7-----7-6-----7-----7-----6-----7-----6-4|
E|-0-5---0-5---0-5---0-5---0-5-----0-4---0-4---0-4---0-4---0-4----|

gtr1PM.............................................................|
e|----------------------------------------------------------------:|
b|----------------------------------------------------------------:|
g|----------------------------------------------------------------:|
D|----------------------------------------------------------------:|
A|-2-0-2-6-2-0-2-0-2-6-2-0-2-6-2-0-2-0-2-6-2-0-2-6-2-4-2-0-2-4-2-0:|
E|----------------------------------------------------------------:|
play 3 times,then..

gtr1PM..............................................................
e|----------------------------------------------------------------|
b|----------------------------------------------------------------|
g|----------------------------------------------------------------|
D|----------------------------------------------------------------|
A|-----9-----9-----7-----7-----7-6-----7-----7-----6-----7-----6-4|
E|-0-5---0-5---0-5---0-5---0-5-----0-4---0-4---0-4---0-4---0-4----|

gtr1      PM..|       PM..|               PM..|       PM..|
e|----------------------------------------------------------------|
b|----------------------------------------------------------------|
g|-4-----------4-----4-------------4-----------4------------------|
D|-4-----4-----4-----4-------------4-----4-----4-----4------------|
A|-2-----2-2-2-2-----2-2-2-2h4p2p0-2-----2-2-2-2-----2-2-2-2h4p2p0|
E|-2-----2-2-2-2-----2-2-2---------2-----2-2-2-2-----2-2-2--------|


chorus
gtr1      PM..|                           PM..|
e|-0-------------------------------0------------------------------|
b|-0-----------------------0-------0-----0-----0-----------0------|
g|-4-----4-----4-----4-4-4-4-------4-----4-----4-----------4------|
D|-2-----2-2-2-2-----2-2-2-2---2-2-4-----4-4-4-4-----4-4-4-4---4-4|
A|-0-----0-0-0-0-----0-0-0-0---0-0-2-----2-2-2-2-----2-2-2-2---2-2|
E|---------------------------------0-----0-0-0-0-----0-0-0-0---0-0|

gtr1      PM..|       PM..|               PM..|       PM..|
e|----------------------------------------------------------------|
b|----------------------------------------------------------------|
g|-4-----------4-----4-------------4-----------4------------------|
D|-4-----4-----4-----4-------------4-----4-----4-----4------------|
A|-2-----2-2-2-2-----2-2-2-2h4p2p0-2-----2-2-2-2-----2-2-2-2h4p2p0|
E|-2-----2-2-2-2-----2-2-2---------2-----2-2-2-2-----2-2-2--------|

gtr1       PM..|                           PM..|
e|-0-------------------------------0------------------------------|
b|-0-------------------------------0-----0-----0-----------0------|
g|-4-----4-----4--------420--------4-----4-----4-----------4------|
D|-2-----2-2-2-2-----------420-----4-----4-4-4-4-----4-4-4-4---4-4|
A|-0-----0-0-0-0---------------4-0-2-----2-2-2-2-----2-2-2-2---2-2|
E|---------------------------------0-----0-0-0-0-----0-0-0-0---0-0|

gtr1       PM..|       PM..|               PM..|       PM..|
e|----------------------------------------------------------------|
b|----------------------------------------------------------------|
g|-4-----------4-----4-------------4-----------4------------------|
D|-4-----4-----4-----4-------------4-----4-----4-----4------------|
A|-2-----2-2-2-2-----2-2-2-2h4p2p0-2-----2-2-2-2-----2-2-2-2h4p2p0|
E|-2-----2-2-2-2-----2-2-2---------2-----2-2-2-2-----2-2-2--------|

gtr1       PM..|                           PM..|
e|-0-------------------------------0------------------------------|
b|-0-----------------------0-------0-----0-----0-----------0------|
g|-4-----4-----4-----4-4-4-4-------4-----4-----4-----------4------|
D|-2-----2-2-2-2-----2-2-2-2---2-2-4-----4-4-4-4-----4-4-4-4---4-4|
A|-0-----0-0-0-0-----0-0-0-0---0-0-2-----2-2-2-2-----2-2-2-2---2-2|
E|---------------------------------0-----0-0-0-0-----0-0-0-0---0-0|

gtr1       PM..|       PM..|               PM..|       PM..|
e|----------------------------------------------------------------|
b|----------------------------------------------------------------|
g|-4-----------4-----4-------------4-----------4------------------|
D|-4-----4-----4-----4-------------4-----4-----4-----4------------|
A|-2-----2-2-2-2-----2-2-2-2h4p2p0-2-----2-2-2-2-----2-2-2-2h4p2p0|
E|-2-----2-2-2-2-----2-2-2---------2-----2-2-2-2-----2-2-2--------|

gtr1
e|----------------------------------------------------------------|
b|----------------------------------------------------------------|
g|----------------------------------------------------------------|
D|-11----11----11-------12----11----------------------------------|
A|-0-----0-----0--------0-----0-12-11----11----11-------12----11--|
E|-------------------------------0-0-----0-----0--------0-----0-12|

gtr1       PM..|       PM..|               PM..|       PM..|
e|----------------------------------------------------------------|
b|----------------------------------------------------------------|
g|-4-----------4-----4-------------4-----------4------------------|
D|-4-----4-----4-----4-------------4-----4-----4-----4------------|
A|-2-----2-2-2-2-----2-2-2-2h4p2p0-2-----2-2-2-2-----2-2-2-2h4p2p0|
E|-2-----2-2-2-2-----2-2-2---------2-----2-2-2-2-----2-2-2--------|

preverse 2
gtr1
e|----------------------------------------------------------------|
b|----------------------------------------------------------------|
g|----------------------------------------------------------------|
D|1819--1819--1819----19----19------------------------------------|
A|----21----21----1921--1921--1918----19----19----18----19----1816|
E|--------------------------------0h16--0h16--0h16--0h16--0h16----|

gtr1
e|----------------------------------------------------------------|
b|----------------------------------------------------------------|
g|----------------------------------------------------------------|
D|----------------------------------------------------------------|
A|----1418--------1418----1418--------1418--------1418----1418----|
E|1917----19171917----1917----19171917----19171917----1917----1917|

gtr1
e|----------------------------------------------------------------|
b|----------------------------------------------------------------|
g|----------------------------------------------------------------|
D|1819--1819--1819----19----19------------------------------------|
A|----21----21----1921--1921--1918----19----19----18----19----1816|
E|--------------------------------0h16--0h16--0h16--0h16--0h16----|

gtr1
e|----------------------------------------------------------------|
b|----------------------------------------------------------------|
g|----------------------------------------------------------------|
D|----------------------------------------------------------------|
A|----1418--------1418----1418--------1418--------1418----18-\----|
E|1917----19171917----1917----19171917----19171917----1917--------|


verse 2
gtr1PM..............................................................
e|----------------------------------------------------------------|
b|----------------------------------------------------------------|
g|----------------------------------------------------------------|
D|----------------------------------------------------------------|
A|-----9-----9-----7-----7-----7-6-----7-----7-----6-----7-----6-4|
E|-0-5---0-5---0-5---0-5---0-5-----0-4---0-4---0-4---0-4---0-4----|

gtr1PM.............................................................|
e|----------------------------------------------------------------:|
b|----------------------------------------------------------------:|
g|----------------------------------------------------------------:|
D|----------------------------------------------------------------:|
A|-2-0-2-6-2-0-2-0-2-6-2-0-2-6-2-0-2-0-2-6-2-0-2-6-2-4-2-0-2-4-2-0:|
E|----------------------------------------------------------------:|
play 3 times,then..

gtr1
e|----------------------------------------------------------------|
b|----------------------------------------------------------------|
g|----------------------------------------------------------------|
D|----------------------------------------------------------------|
A|-----9-----9-----7-----7-----7-6-----7-----7-----6-----7-----6-4|
E|-0-5---0-5---0-5---0-5---0-5-----0-4---0-4---0-4---0-4---0-4----|

gtr1       PM..|       PM..|               PM..|       PM..|
e|----------------------------------------------------------------|
b|----------------------------------------------------------------|
g|-4-----------4-----4-------------4-----------4------------------|
D|-4-----4-----4-----4-------------4-----4-----4-----4------------|
A|-2-----2-2-2-2-----2-2-2-2h4p2p0-2-----2-2-2-2-----2-2-2-2h4p2p0|
E|-2-----2-2-2-2-----2-2-2---------2-----2-2-2-2-----2-2-2--------|


2nd chorus
gtr1       PM..|                           PM..|
e|-0-------------------------------0------------------------------|
b|-0-----------------------0-------0-----0-----0-----------0------|
g|-4-----4-----4-----4-4-4-4-------4-----4-----4-----------4------|
D|-2-----2-2-2-2-----2-2-2-2---2-2-4-----4-4-4-4-----4-4-4-4---4-4|
A|-0-----0-0-0-0-----0-0-0-0---0-0-2-----2-2-2-2-----2-2-2-2---2-2|
E|---------------------------------0-----0-0-0-0-----0-0-0-0---0-0|

gtr1       PM..|       PM..|               PM..|       PM..|
e|----------------------------------------------------------------|
b|----------------------------------------------------------------|
g|-4-----------4-----4-------------4-----------4------------------|
D|-4-----4-----4-----4-------------4-----4-----4-----4------------|
A|-2-----2-2-2-2-----2-2-2-2h4p2p0-2-----2-2-2-2-----2-2-2-2h4p2p0|
E|-2-----2-2-2-2-----2-2-2---------2-----2-2-2-2-----2-2-2--------|

gtr1       PM..|                           PM..|
e|-0-------------------------------0------------------------------|
b|-0-------------------------------0-----0-----0-----------0------|
g|-4-----4-----4--------420--------4-----4-----4-----------4------|
D|-2-----2-2-2-2-----------420-----4-----4-4-4-4-----4-4-4-4---4-4|
A|-0-----0-0-0-0---------------4-0-2-----2-2-2-2-----2-2-2-2---2-2|
E|---------------------------------0-----0-0-0-0-----0-0-0-0---0-0|

gtr1       PM..|       PM..|               PM..|       PM..|
e|----------------------------------------------------------------|
b|----------------------------------------------------------------|
g|-4-----------4-----4-------------4-----------4------------------|
D|-4-----4-----4-----4-------------4-----4-----4-----4------------|
A|-2-----2-2-2-2-----2-2-2-2h4p2p0-2-----2-2-2-2-----2-2-2-2h4p2p0|
E|-2-----2-2-2-2-----2-2-2---------2-----2-2-2-2-----2-2-2--------|

gtr1       PM..|                           PM..|
e|-0-------------------------------0------------------------------|
b|-0-----------------------0-------0-----0-----0-----------0------|
g|-4-----4-----4-----4-4-4-4-------4-----4-----4-----------4------|
D|-2-----2-2-2-2-----2-2-2-2---2-2-4-----4-4-4-4-----4-4-4-4---4-4|
A|-0-----0-0-0-0-----0-0-0-0---0-0-2-----2-2-2-2-----2-2-2-2---2-2|
E|---------------------------------0-----0-0-0-0-----0-0-0-0---0-0|

gtr1       PM..|       PM..|               PM..|       PM..|
e|----------------------------------------------------------------|
b|----------------------------------------------------------------|
g|-4-----------4-----4-------------4-----------4------------------|
D|-4-----4-----4-----4-------------4-----4-----4-----4------------|
A|-2-----2-2-2-2-----2-2-2-2h4p2p0-2-----2-2-2-2-----2-2-2-2h4p2p0|
E|-2-----2-2-2-2-----2-2-2---------2-----2-2-2-2-----2-2-2--------|

gtr1
e|----------------------------------------------------------------|
b|----------------------------------------------------------------|
g|----------------------------------------------------------------|
D|-11----11----11-------12----11----------------------------------|
A|-0-----0-----0--------0-----0-12-11----11----11-------12----11--|
E|------------------------------0--0-----0-----0--------0-----0-12|

gtr1       PM..|       PM..|               PM..|       PM..|
e|----------------------------------------------------------------|
b|----------------------------------------------------------------|
g|-4-----------4-----4-------------4-----------4------------------|
D|-4-----4-----4-----4-------------4-----4-----4-----4------------|
A|-2-----2-2-2-2-----2-2-2-2h4p2p0-2-----2-2-2-2-----2-2-2-2h4p2p0|
E|-2-----2-2-2-2-----2-2-2---------2-----2-2-2-2-----2-2-2--------|


solo      (chorus chords behind it)
gtr1
e|-------------------------------------------------------------------------|
b|0-12-16-12-16-12-0-12-----------12h14-0-12-16-12-16-12-0-12--------------|
g|--------------------1413141314h16-------------------------1413141314-b16~|
D|-------------------------------------------------------------------------|
A|-------------------------------------------------------------------------|
E|-------------------------------------------------------------------------|

gtr1
e|-------------------------------------------------------------------------|
b|0-12-16-12-16-12-0-12-----------12h14-0-12-16-12-16-12-0-12--------------|
g|--------------------1413141314h16-------------------------1413141314-b16~|
D|-------------------------------------------------------------------------|
A|-------------------------------------------------------------------------|
E|-------------------------------------------------------------------------|

gtr1
e|-------------------------------------------------------------------------|
b|0-12-16-12-16-12-0-12-17-12-17-12-0-12-19-19-19-12-0-12-17-12-17-12-0-12-|
g|-------------------------------------------------------------------------|
D|-------------------------------------------------------------------------|
A|-------------------------------------------------------------------------|
E|-------------------------------------------------------------------------|
                                                 gtr1
                                                 e|----------------|
                                                 b|16-12-16-12-0-12|
                                                 g|----------------|
                                                 D|----------------|
                                                 A|----------------|
                                                 E|----------------|

gtr1
e|-----19--19------19--19------19------19--19---------------------|
b|-1619--19--191619--19--191619--191619--19--1916h19--16-19~~~~~~~|
g|----------------------------------------------------------------|
D|----------------------------------------------------------------|
A|----------------------------------------------------------------|
E|----------------------------------------------------------------|


bridge    how it feels.....
gtr1
e|----------------------------------------------------------------|
b|----------------------------------------------------------------|
g|----------------------------------------------------------------|
D|-11----11----11-------12----11----------------------------------|
A|-0-----0-----0--------0-----0-12-11----11----11-------12----11--|
E|-------------------------------0-0-----0-----0--------0-----0-12|

gtr1       PM..|       PM..|               PM..|       PM..|
e|----------------------------------------------------------------|
b|----------------------------------------------------------------|
g|-4-----------4-----4-------------4-----------4------------------|
D|-4-----4-----4-----4-------------4-----4-----4-----4------------|
A|-2-----2-2-2-2-----2-2-2-2h4p2p0-2-----2-2-2-2-----2-2-2-2h4p2p0|
E|-2-----2-2-2-2-----2-2-2---------2-----2-2-2-2-----2-2-2--------|

gtr1
e|----------------------------------------------------------------|
b|----------------------------------------------------------------|
g|----------------------------------------------------------------|
D|-11----11----11-------12----11----------------------------------|
A|-0-----0-----0--------0-----0-12-11----11----11-------12----11--|
E|-------------------------------0-0-----0-----0--------0-----0-12|

gtr1       PM..|       PM..|               PM..|       PM..|
e|----------------------------------------------------------------|
b|----------------------------------------------------------------|
g|-4-----------4-----4-------------4-----------4------------------|
D|-4-----4-----4-----4-------------4-----4-----4-----4------------|
A|-2-----2-2-2-2-----2-2-2-2h4p2p0-2-----2-2-2-2-----2-2-2-2h4p2p0|
E|-2-----2-2-2-2-----2-2-2---------2-----2-2-2-2-----2-2-2--------|

gtr1
e|----------------------------------------------------------------|
b|----------------------10~~~~~~~---------------------------------|
g|----------------------------------------------------------------|
D|-11----11----11-------------11----------------------------------|
A|-0-----0-----0--------------0-12-11----11----11-------12----11--|
E|-------------------------------0-0-----0-----0--------0-----0-12|

gtr1       PM..|       PM..|               PM..|       PM..|
e|----------------------------------------------------------------|
b|----------------------------------------------------------------|
g|-4-----------4-----4-------------4-----------4------------------|
D|-4-----4-----4-----4-------------4-----4-----4-----4------------|
A|-2-----2-2-2-2-----2-2-2-2h4p2p0-2-----2-2-2-2-----2-2-2-2h4p2p0|
E|-2-----2-2-2-2-----2-2-2---------2-----2-2-2-2-----2-2-2--------|

gtr1
e|----------------------------------------------------------------|
b|----------------------------------------------------------------|
g|----------------------------------------------------------------|
D|-11----11----11-------12----11----------------------------------|
A|-0-----0-----0--------0-----0-12-11----11----11-------12----11--|
E|-------------------------------0-0-----0-----0--------0-----0-12|

gtr1       PM..|       PM..|               PM..|       PM..|
e|----------------------------------------------------------------|
b|----------------------------------------------------------------|
g|-4-----------4-----4-------------4-----------4------------------|
D|-4-----4-----4-----4-------------4-----4-----4-----4------------|
A|-2-----2-2-2-2-----2-2-2-2h4p2p0-2-----2-2-2-2-----2-2-2-2h4p2p0|
E|-2-----2-2-2-2-----2-2-2---------2-----2-2-2-2-----2-2-2--------|


last chorus
gtr1       PM..|                           PM..|
e|-0-------------------------------0------------------------------|
b|-0-----------------------0-------0-----0-----0-----------0------|
g|-4-----4-----4-----4-4-4-4-------4-----4-----4-----------4------|
D|-2-----2-2-2-2-----2-2-2-2---2-2-4-----4-4-4-4-----4-4-4-4---4-4|
A|-0-----0-0-0-0-----0-0-0-0---0-0-2-----2-2-2-2-----2-2-2-2---2-2|
E|---------------------------------0-----0-0-0-0-----0-0-0-0---0-0|

gtr1       PM..|       PM..|               PM..|       PM..|
e|----------------------------------------------------------------|
b|----------------------------------------------------------------|
g|-4-----------4-----4-------------4-----------4------------------|
D|-4-----4-----4-----4-------------4-----4-----4-----4------------|
A|-2-----2-2-2-2-----2-2-2-2h4p2p0-2-----2-2-2-2-----2-2-2-2h4p2p0|
E|-2-----2-2-2-2-----2-2-2---------2-----2-2-2-2-----2-2-2--------|

gtr1       PM..|                           PM..|
e|-0-------------------------------0------------------------------|
b|-0-----------------------0-------0-----0-----0-----------0------|
g|-4-----4-----4-----4-4-4-4-------4-----4-----4-----------4------|
D|-2-----2-2-2-2-----2-2-2-2---2-2-4-----4-4-4-4-----4-4-4-4---4-4|
A|-0-----0-0-0-0-----0-0-0-0---0-0-2-----2-2-2-2-----2-2-2-2---2-2|
E|---------------------------------0-----0-0-0-0-----0-0-0-0---0-0|

gtr1       PM..|       PM..|               PM..|       PM..|
e|----------------------------------------------------------------|
b|----------------------------------------------------------------|
g|-4-----------4-----4-------------4-----------4------------------|
D|-4-----4-----4-----4-------------4-----4-----4-----4------------|
A|-2-----2-2-2-2-----2-2-2-2h4p2p0-2-----2-2-2-2-----2-2-2-2h4p2p0|
E|-2-----2-2-2-2-----2-2-2---------2-----2-2-2-2-----2-2-2--------|

gtr1       PM..|                           PM..|
e|-0-------------------------------0------------------------------|
b|-0-------------------------------0-----0-----0-----------0------|
g|-4-----4-----4--------420--------4-----4-----4-----------4------|
D|-2-----2-2-2-2-----------420-----4-----4-4-4-4-----4-4-4-4---4-4|
A|-0-----0-0-0-0---------------4-0-2-----2-2-2-2-----2-2-2-2---2-2|
E|---------------------------------0-----0-0-0-0-----0-0-0-0---0-0|

gtr1       PM..|       PM..|               PM..|       PM..|
e|----------------------------------------------------------------|
b|----------------------------------------------------------------|
g|-4-----------4-----4-------------4-----------4------------------|
D|-4-----4-----4-----4-------------4-----4-----4-----4------------|
A|-2-----2-2-2-2-----2-2-2-2h4p2p0-2-----2-2-2-2-----2-2-2-2h4p2p0|
E|-2-----2-2-2-2-----2-2-2---------2-----2-2-2-2-----2-2-2--------|

gtr1
e|----------------------------------------------------------------|
b|----------------------------------------------------------------|
g|----------------------------------------------------------------|
D|-11----11----11-------12----11----------------------------------|
A|-0-----0-----0--------0-----0-12-11----11----11-------12----11--|
E|-------------------------------0-0-----0-----0--------0-----0-12|

gtr1       PM..|       PM..|               PM..|       PM..|
e|----------------------------------------------------------------|
b|----------------------------------------------------------------|
g|-4-----------4-----4-------------4-----------4------------------|
D|-4-----4-----4-----4-------------4-----4-----4-----4------------|
A|-2-----2-2-2-2-----2-2-2-2h4p2p0-2-----2-2-2-2-----2-2-2-2h4p2p0|
E|-2-----2-2-2-2-----2-2-2---------2-----2-2-2-2-----2-2-2--------|

gtr1
e|----------------------------------------------------------------|
b|-------------------------10~~~~~~~------------------------------|
g|----------------------------------------------------------------|
D|-11----11----11-------12----------------------------------------|
A|-0-----0-----0--------0----------11----11----11-------12----11--|
E|---------------------------------0-----0-----0--------0-----0-12|

gtr1
e|-----------------------|
b|-0---------------------|
g|-4---------------------|
D|-4---------------------|
A|-2---------------------|
E|-2---------------------|



| /  slide up
| \  slide down
| h  hammer-on
| p  pull-off
| ~  vibrato
| * harmonic
| PS pick scratch
| PM  Mute note
| PH pinch harmonic
comments
print report bad tab
6 comments total. Showing first comments.
+4 reply
Mega-Tallica wrote on September 3 2007, 09:37 pm

The first one to have that main riff right, good job.

-1 reply
rubes wrote on October 14 2007, 01:48 am

Interesting... I wonder who submitted this, cuz I didn't, but it's definitely the one I wrote for alterbridgeband.net...
and thanks for the positive comment

-1 reply
rubes wrote on October 14 2007, 02:31 am

(sry, the *IMPROVED* version that I tabbed after my other one. obviously my older ODR tab is terrible)

I want to post or [tab]
guest
You may want to rate the tab now too:
select rating
Please do not post tabs as comments. Select "correction" instead!