Oops, an error
Loading. Please wait.

Open Your Eyes Bass Tab

ver2
ver2

Whole song

Interactive

More versions @911Tabs.com
5,997 views 30 this week
1 commentread comment
1 2 3 4 5
accurate
x 5
Autoscroll
+/-
esc
set tempo
stop
Contributor
WARNING: You are trying to view
                                    content from Ultimate-Guitar.com
                                    in an unauthorized application,
                                    which is prohibited.

                                    Please use an official Ultimate
                                    Guitar Tabs application for iPhone,
                                    iPad or Android to access legitimate
                                    chords, guitar, bass, and drum tabs
                                    from Ultimate-Guitar.com database.

                                    Type "ultimate guitar tabs" in Apple
                                    App Store's or Android Market's
                                    search to find the application.
Band- Alter Bridge
Song- Open Your Eyes
Album- One Day Remains
Tuning- DADG

Intro
G|--------------------------|--------------------------|--------------------------|
D|--------------------------|--------------------------|--------------------------|
A|--7h9-9-9--7--9-5--5--5-5-|--7h9-9-9--7--9-5--5--5-5-|--------------------------|
D|--------------------------|--------------------------|--7h9-9-9--7--9-5--5--5-5-|

G|--------------------------|--------------------------|--------------------------|
D|--------------------------|--------------------------|--------------------------|
A|-----------4--5-5--5--5-5-|--------------------------|--------------5-5--5--5-5-|
D|--5h7-7-7-----------------|--7h9-9-9--7--9-5--5--5-5-|--5h7-7-7--057------------|

Verse 1
G|--------------------------|--------------------------|--------------------------|
D|--------------------------|--------------------------|--------------------------|
A|--2-----------------------|--------------------------|--------------------------|
D|--------------------------|--5-----------------------|--0--------------------7--|

G|--------------------------|--------------------------|--------------------------|
D|--------------------------|--------------------------|--------------------------|
A|--------------------------|--2-----------------------|--------------------------|
D|--0-----------------------|--------------------------|--5-----------------------|

G|--------------------------|--------------------------|---------4----------------|
D|--------------------------|--------------------------|--------------------------|
A|--2--------0--------------|-----------4--5-----------|--2----2----2---2---0-2-0-|
D|--------------5--------5--|--7-----------------------|--------------------------|

G|--------------------------|--------------------------|--------------------------|-----|
D|---------5-------5--------|--------------------------|--------------------------|-/5--|
A|-----------------------4h-|--5-5---5---5----5-----5--|--2----2----2---2---0-2-0-|-----|
D|--5----5----5--5-----5----|---------------------0----|--------------------------|-----|


Chorus 1
G|--------------------------|--------------------------|--------------------------|
D|--------------------------|--------------5-----4h5---|--------7-----------------|
A|-------5---5-4--4-4-5-5-7-|--2--2-2------------------|--------------------7----7|
D|--0--0---0----------------|---------0-5----5-5-------|--7---7-----7--7--7---7---|

G|--------------------------|--------------------------|--------------------------|
D|--------5-----------------|--------------------------|--------------------------|
A|-----------------------4--|-------5---5-4--4-4-5-5-7-|--2--2-2------------------|
D|--5---5-----5--5-5h7-7----|--0--0---0----------------|---------0-5--------------|


After chorus 1 part
G|--------------------------|--------------------------|--------------------------|
D|--------------------------|--------------------------|--------------------------|
A|--7h9-9-9--7--9-5--5--5-5-|--7h9-9-9--7--9-5--5--5-5-|--------------------------|
D|--------------------------|--------------------------|--7h9-9-9--7--9-5--5--5-5-|


G|--------------------------|--------------------------|--------------------------|
D|--------------------------|----------/5-----5--3-----|----------/5-----5--3-----|
A|--------------5-5--5--5-5-|--2---0h2--------------5--|-----------------------5--|
E|--5h7-7-7--057------------|--------------------------|--3---0h3-----------------|

G|--------------------------|--------------------------|--------------------------|
D|----------/5-----5-3h5-5--|----------/5-----5-3h5-5--|--------------------------|
A|--3-----3-----------------|--3-----3-----------------|--8--------8--------8-10--|
E|--------------------------|--------------------------|--------8-----8--8--------|

G|--------------------------|--------------------------|--------------------------|
D|----------/9-----7b-------|--------------------------|--5-----6-----7-----------|
A|--8--7--------------------|-----2-----0-------/7-----|--------------------------|
E|--------------------------|--0-----0-----------------|--------------------------|

Verse 2
G|--------------------------|--------------------------|--------------------------|
D|--------------------------|--------------------------|--------------------------|
A|--2-----------------------|--------------------------|--------------------------|
D|--------------------------|--5-----------------------|--0--------------------7--|

G|--------------------------|--------------------------|--------------------------|
D|--------------------------|--------------------------|--------------------------|
A|--------------------------|--2-----------------------|--------------------------|
D|--0-----------------------|--------------------------|--5-----------------------|

G|--------------------------|--------------------------|--------------------------|
D|--------------------------|--------------------------|--------------------------|
A|--2--------0--------------|-----------4--5-----------|--2--------0--------------|
D|--------------5--------5--|--7-----------------------|--------------5--------5--|

G|--------------------------|--------------------------|--------------------------|
D|--------------------------|--------------------------|------5-------------------|
A|-----------4--5-----------|--2----2----2---2---0-2-0-|--------------------------|
D|--7-----------------------|--------------------------|--5-------5--0-4h5--5-5-7-|

G|--------------------------|--------------------------|--------------------------|
D|--------------------------|--------------------------|--------------------------|
A|--5---5---5------------5--|--2----2----2---2---0-2-0-|--------------------------|
D|-------------0-3h5-5-5---5|--------------------------|--5-----------------------|

Chorus 2
G|--------------------------|--------------------------|--------------------------|
D|--------------------------|--------------5-----4h5---|-----------7--------------|
A|-------5---5-4--4-4-5-5-7-|--2--2-2------------------|--------7-----7-----7----7|
D|--0--0---0----------------|---------0-5----5-5-------|--7---7---------7-7---7---|

G|--------------------------|--------------------------|--------------------------|
D|--------5-----------------|--------7-----------------|--------------5-----4h5---|
A|-----------------------4--|--4--5-----5-4--4-4-5-5-7-|--2--2-2------------------|
D|--5---5-----5--5-5h7-7----|--------------------------|---------0-5----5-5-------|

G|--------------------------|--------------------------|--------------------------|------------|
D|--------------------------|--------------------------|--------------------------|------------|
A|--------------------7----7|-----------------------4--|-------5---5-4--4-4-5-5-7-|-2--2-2-----|
D|--7---7--7--7--7--7---7---|--5---5--5--5--5-5h7-7----|--0--0---0----------------|--------0-5-|


Interlude
G|--------------------------|--------------------------|--------------------------|
D|--------------------------|--------------------------|--------------------------|
A|--2-----------------------|--------------------------|--------------------------|
D|--------------------------|--5--------------------7--|--0-----------------------|

G|--------------------------|--------------------------|--------------------------|
D|--------------------------|o-------------------------|--------------------------|
A|--------------------------|o--2---2---2---2----------|--------------------------|
D|--0-----------------------|------------------4--2--4-|--5---5---0-4h5-5--5-7-7--|
                                                      x2
G|------------7-------------|------------7-------------|--------------------------|
D|--------------------------|-------------------------o|--------------------------|
A|---------5----------------|---------5---------------o|--2---2---2---2-----------|
D|--0-0--0-------0-4-5---7--|--0-0--0-------0-4-5---7--|------------------4--2--4-|

G|--------------------------|--------------------------|--------------------------|
D|--------------------------|--------------------------|--------------5-----4h5---|
A|--------------------------|-----------5-4--4-4-5-5-7-|--2--2-2------------------|
D|--5---5---0-4h5-5--5-7-7--|--0--0---0----------------|---------0-5----5-5-------|

G|--------------------------|--------------------------|
D|--------------------------|--------------------------|
A|--2-2--2-2---2--2-2--2-2--|------------/10-10-10-10--|
D|--------------------------|--5-5--5-5----------------|

Interlude
G|--------------------------|--------------------------|--------------------------|
D|--------------------------|--------------------------|--------------------------|
A|--------------------------|--------------------------|--------------------5--7--|
E|--1-----1-----1-----1-----|--1-----1-----1----1/13\--|--3-----3-----3-/---------|

G|--------------------------|--------------------------|--------------------------|
D|--------------------------|--------------------------|-------3/5-3-----3--------|
A|-------5--7--------7-\----|--------------------------|-----3--------------3-\---|
E|--0-------------7---------|--1-----1-----1-----1-----|--1-----------------------|

G|--------------------------|--------------------------|--------------------------|
D|--------------------------|--------------------------|--------------------------|
A|--------------------5--7--|----------7-----7-----7---|--8-----8-----8-X-8---8---|
E|--3-----3-----3-/---------|--0----7-----7-----7------|-----8-----8--------8---8-|

G|--------------------------|--------------------------|--------------------------|
D|--------------------------|--5-----5-----5-X-5---5---|--------------------------|
A|--8-----8-----8-X-8---8---|-----5-----5--------5---5-|--7-----7-----7-X-10--10--|
E|-----8-----8--------8---8-|--------------------------|-----7-----7--------------|

G|--------------------------|--------------------------|--------------------------|
D|--------------------------|--5-----5-----5-X-5---5---|-----------------5--6--7--|
A|--8-----8-----8-X-8---8---|-----5-----5--------5---5-|--0--0--0--0--0-----------|
E|-----8-----8--------8---8-|--------------------------|--------------------------|


Verse after interlude
G|--------------------------|--------------------------|--------------------------|
D|--------------------------|--------------------------|--------------------------|
A|--0--------0-----3--2-----|--0--------0-----3--2-----|--------------------------|
E|------0-3--------------0--|------0-3--------------0--|--4---0-4--4-----7--5--0--|

G|--------------------------|--------------------------|--------------------------|
D|--------------------------|--------------------------|--------------------------|
A|--------------------------|--4--------4-----7--------|--4--------4-----7--------|
E|--4---0-4--4-----7--4--7--|------4-7-----------4--7--|------4-7-----------4--7--|

G|--------------------------|--------------------------|--------------------------|
D|--------------------------|--------------------------|--------------------------|
A|--5--------5-----8--------|--5--------5-----8--5--3--|--2-----0--2--2-----0--3--|
E|------5-8-----------5--8--|------5-8-----------------|------2----------2--------|

G|--------------------------|--------------------------|--------------------------|
D|-----/5----3--3--3--------|-----------------2--------|-----------------2-----2--|
A|--2-----------------5--0--|--3-----3--3--------3--2--|--3-----3--3--------3-----|
E|--------------------------|------3-------------------|------3-------------------|

G|--------------------------|--------------------------|--------------------------|---------|
D|--------------------------|----------/9-----7b-------|--------------------------|-5--6--7-|
A|--8--------8--------8-10--|--8--7--------------------|-----2-----0-------/7-----|---------|
E|--------8-----8--8--------|--------------------------|--0-----0-----------------|---------|


Outro X2
G|--------------------------|--------------------------|--------------------------|
D|--------------------------|--------------------------|--------------------------|
A|--0-----0-----0-----0-----|--4-----4-----4-----4-----|--5-----5-----5-----5-----|
E|--------------------------|--------------------------|--------------------------|

G|--------------------------|--------------------------|--------------------------|
D|--------------------------|--------------------------|--------------------------|
A|--8--8--8--7--7--7--5--5--|--2-----2-----2-----2-----|--0-----0-----0-----0-----|
E|--------------------------|--------------------------|--------------------------|
                                                        Ending                       
G|--------------------------|--------------------------|--------------------------|
D|--------------------------|--------------------------|--------------------------|
A|--------------------------|-----------7-----------7--|--------------------------|
E|--4-----4-----4-----4-----|--0----/7-----------7-----|--0--1--------------------|
comments
print report bad tab
1 comment total.
0 reply
jamestorres wrote on June 21 2013, 05:45 pm

am i the only one that gets confused trying to play this?

not only this one but every other tab, i guess i'm noob :D

I want to post or [tab]
guest
You may want to rate the tab now too:
select rating
Please do not post tabs as comments. Select "correction" instead!