Oops, an error
Loading. Please wait.

Shed My Skin Tab

ver2
ver2

Whole song

More versions @911Tabs.com
2,877 views 3 this week
no commentswrite comment
1 2 3 4 5
accurate
x 2
Autoscroll
+/-
esc
set tempo
stop
Contributor
Difficulty
Tuning
intermediate
C G C F A D
WARNING: You are trying to view
                                    content from Ultimate-Guitar.com
                                    in an unauthorized application,
                                    which is prohibited.

                                    Please use an official Ultimate
                                    Guitar Tabs application for iPhone,
                                    iPad or Android to access legitimate
                                    chords, guitar, bass, and drum tabs
                                    from Ultimate-Guitar.com database.

                                    Type "ultimate guitar tabs" in Apple
                                    App Store's or Android Market's
                                    search to find the application.
Gtr I (C G C F A D) - 'Guitar1 (elec clean)'
Gtr II (C G C F A D) - 'Guitar2 (acoustic)'
Gtr III (C G C F A D) - 'Guitar3 (elec dist, doubled)'
Gtr IV (C G C F A D) - 'Guitar4 (elect dist)'


 Intro
  Slowly Q=66
  G            DsusD           C
 2/4              4/4
  Gtrs I, II
  E. S +S  S a E   E. S Q  +S  S S S +S  S S S
|----------------|-----------------------------|
|----------------|-----------------------------|
|----------------|-----------------------------|
|-9--7-(7)---4h5-|-4-------------4s2-(2)-0h2h4-|
|----------------|----0------------------------|
|-5--5-(5)-0---0-|-0----0--(0)-0---------------|


  Bm                G6add9
  S S S S S S  S  S S S S S S S S S
|---------------------------0-------||
|-----------------------------0-----||
|-----0--------0----------7-----7---||
|---4---4---4-(4)s7-----7-----------||
|-2-------2-----------5-------------||
|-------------------5-------------5-||


   Verse
    G            DsusD
   2/4              4/4
    E. S +S  S a E   E. S Q  +S  S S S +S  S S S
||-----------------|-----------------------------|
||o----------------|-----------------------------|
||-----------------|-----------------------------|
||--9--7-(7)---4h5-|-4-------------4s2-(2)-0h2h4-|
||o----------------|----0------------------------|
||--5--5-(5)-0---0-|-0----0--(0)-0---------------|


  Bm                G6add9
  S S S S S S  S  S S S S S S S S S
|---------------------------0--------|
|-----------------------------0------|
|-----0--------0----------7-----7----|
|---4---4---4-(4)s7-----7------------|
|-2-------2-----------5--------------|
|-------------------5-------------5--|


  G            DsusD
 2/4              4/4
  E. S +S  S a E   E. S Q  +S  S S S +S  S S S
|----------------|-----------------------------|
|----------------|-----------------------------|
|----------------|-----------------------------|
|-9--7-(7)---4h5-|-4-------------4s2-(2)-0h2h4-|
|----------------|----0------------------------|
|-5--5-(5)-0---0-|-0----0--(0)-0---------------|


  Bm                G6add9
  S S S S S S  S  S S S S S S S S S
|---------------------------0-------|
|-----------------------------0-----|
|-----0--------0----------7-----7---|
|---4---4---4-(4)s7-----7-----------|
|-2-------2-----------5-------------|
|-------------------5-------------5-|


  G            DsusD
 2/4              4/4
  E. S +S  S a E   E. S Q  +S  S S S +S  S S S
|----------------|-----------------------------|
|----------------|-----------------------------|
|----------------|-----------------------------|
|-9--7-(7)---4h5-|-4-------------4s2-(2)-0h2h4-|
|----------------|----0------------------------|
|-5--5-(5)-0---0-|-0----0--(0)-0---------------|
|
| Gtr III
| W                W
|----------------|-----------------------------|
|----------------|-----------------------------|
|----------------|-----------------------------|
|----------------|-----------------------------|
|----------------|-----------------------------|
|----------------|-----------------------------|


  Bm                  G
  S   S S S S S  S  S E E    Q
|-------------------------^<12>------|
|-------------------------^<12>------|
|-------0--------0--------^<12>------|
|-----4---4---4-(4)s7-----^<12>------|
|-2---------2-------------^<12>------|
|---------------------5-0-^<12>------|
|
| H..                             E
|------------------------------------|
|------------------------------------|
|------------------------------------|
|------------------------------------|
|------------------------------------|
|-------------------------------/12\-|


 Pre-Chorus
  B5  A5    G     D
 2/4             4/4
  Gtr II
   E. S +E    E    Q        E. S +S  S E   Q
|---------------|--------------2-(2)-------------|
|-------------0-|--3-----------3-(3)-------3-----|
|--4--2-(2)---0-|--2-----------2-(2)-------2-----|
|--4--2-(2)---0-|--0-----------0-(0)-------0-----|
|--2--0-(0)---x-|--0--------0--0-(0)-0-0---0-----|
|-------------5-|--0--------0--0-(0)-0-0---0-----|
|
| Gtr III
|                                        PM
|  E. S +E    E    E.  +S   E. S +S  S S S S E S
|---------------|--------------------------------|
|---------------|-----------3--3-(3)-------------|
|-11--9-(9)-/12-|-11--(11)\-2--2-(2)-------6-7-0-|
|--9--7-(7)---x-|--x--------0--0-(0)-------x-x-0-|
|--9--7-(7)-/10-|--9---(9)\-0--0-(0)-2-0-0-4-5---|
|--9--7-(7)-----|--0--------0--0-(0)-2-0-0-------|


  B5           G5               B5  A5      G
                               2/4
  E. S E   E   E. S +E    E      E. S +E     E
|--------------3--3-(3)---3---|-------------------|
|--------------3--3-(3)---3---|--------------0----|
|-4--4-4-------0--0-(0)---0---|--4--2-(2)----0----|
|-4--4-4-------0--0-(0)---0---|--4--2-(2)----0----|
|-2--2-2---0---x--x-(x)---x---|--2--0-(0)----x----|
|----------0---5--5-(5)---5---|--------------5----|
|
| E. S S S S S E. S  S  S S S    E. S  S  S  S  S
|-----------------------------|-------------------|
|--------------8--8--8--8-----|-------------------|
|-4--4-4-0-----7--7--7--7---0-|-11--9--0--0-12-11-|
|-4--4-4-0-2-4-5--5--5--5---0-|--9--7--0--0--x--x-|
|-2--2-2-0-2-4-5--5--5--5-----|--9--7--0--0-10--9-|
|----------2-4-5--5--5--5-0---|--9--7--0--0-------|


  D                                  B5           G5
 4/4
   Q      E.  S +S  S  E   Q         E. S E   E   E. S +E    E
|-------------2-(2)----------------|--------------3--3-(3)---3---|
|--3----------3-(3)--------3-------|--------------3--3-(3)---3---|
|--2----------2-(2)--------2-------|-4--4-4-------0--0-(0)---0---|
|--0----------0-(0)--------0-------|-4--4-4-------0--0-(0)---0---|
|--0------0---0-(0)-0--0---0-------|-2--2-2---0---x--x-(x)---x---|
|--0------0---0-(0)-0--0---0-------|----------0---5--5-(5)---5---|
|
|  E.  S  E.  S  S  S  S S S S S S   E. S S S S S E. S  S  S S S
|----------------------------------|-----------------------------|
|----------------0--0------------0-|-----------------8--8--8-8---|
|-14--14s11--11--0--0-11s9-9-9---0-|-4--4-4-0-----7--7--7--7-7---|
|--x---x--x---x--0--0--x---x-x---0-|-4--4-4-0-2-4-5--5--5--5-5---|
|-12--12s=9---9--------9s7-7-7-----|-2--2-2-0-2-4-5--5--5--5-5---|
|-------------0--------0---0-0-0---|----------2-4-5--5--5--5-5-0-|


                       Chorus
  B5 G5  F#5   G5F#D5   Bsus2
 2/4                   4/4
                     Gtrs II, IV
  W                     Q  E. S +S S Q.
                        |  |  |  | | |
                        /  /  /  / / /

  Gtr II
  E.     S +S  S E      W
|--------------------||-------------------------|
|--------------------||-------------------------|
|-4------------------||-------------------------|
|-4------4-(4)-5-4---||-------------------------|
|-2------4-(4)-5-4---||-------------------------|
|--------4-(4)-5-4---||-------------------------|
|
| Gtr III
|      PM
| S  S S S +S  S S S    Q  E. S  S S E  S S S S
|--------------------||-------------------------|
|--------------------||----2--2--2-2-2----------|
|--------------------||-4--4--4--4-4-4----------|
|-9--5-0-4-(4)-5-4-0-||-4--4--4--4-4-4----------|
|-9--5-0-4-(4)-5-4-0-||-2--2-----2-2-2--0-2-2-4-|
|-9--5-0-4-(4)-5-4-0-||-------------------2-2-4-|


  Gsus2        D/G              Dadd9
  Gtrs II, IV
  Q     E.   S E   Q.           Q     E S S +S  S S S  S  S S   S
  |     |    | |   |            |     | | |  |  | | |  |  | |   |
  /     /    / /   /            /     / / /  /  / / /  /  / /   /

  Gtr III
                                                  PM|
  E S S E  S S S S E  S S S S   E S S E S S +S  S S S  S  E    +S
|-------5--5-5-5-5-5--5-5-5-5-|-0-0-0-0-0-0-(0)---------------------|
|-------8--8-8-7-7-7--7-7-7-7-|-7-7-7-7-7-7-(7)---------------------|
|---7-7-7--7-7-7-7-7--7-7-7-7-|-7-7-7-7-7-7-(7)-------12-11---(11)\-|
|---5-5-5--5-5-5-5-5--5-5-5-5-|-0-0-0-0-0-0-(0)-2-0-0--x--x---------|
|-5-5-5-5--5-5-5-5-5--5-5-5-5-|-0-0-0-0-0-0-(0)-2-0-0-10--9----(9)\-|
|-5-5-5-5--5-5-5-5-5--5-5-5-5-|-0-0-0-0-0-0-(0)-2-0-0---------------|


                                1.
                                 Bsus2
  Q    E.   S +S  S E   S E.     Q  E. S E   E   +S S S S
  |    |    |  |  | |   | |      |  |  | |   |    | | | |
  /    /    /  /  / /   / /      /  /  / /   /    / / / /

                      PM
  E. S E  S S +S  S S S S E  S   Q  Q    S S S S  S S S S
|----0-0--0-0-(0)--------------|--------------------------|
|----7-7--7-7-(7)--------------|----2---------------------|
|----7-7--7-7-(7)-------6-7----|-4--4----4s6-6s7--7s6-6-0-|
|-0--0-0--0-0-(0)-2-0-0-x-x--0-|-4--4----x---x----x---x-0-|
|-0--0-0--0-0-(0)-2-0-0-4-5--0-|-2--2----2s4-4s5--5s4-4-0-|
|-0--0-0--0-0-(0)-2-0-0--------|--------------------------|


  Gsus2         D/G           Dadd9
  Q     E. S +S S Q     E     Q     E.   S +S  S S S  S  E   S
  |     |  |  | | |     |     |     |    |  |  | | |  |  |   |
  /     /  /  / / /     /     /     /    /  /  / / /  /  /   /

                                                 PM|
  E S S E. S  S S E S S S S   E S S E  S S +S  S S S  S  E  +S
|-------5--5--5-5-5-5-5-5-5-|-0-0-0-0--0-0-(0)-------------------|
|-------8--8--8-7-7-7-7-7-7-|-7-7-7-7--7-7-(7)-------------------|
|-------7--7--7-7-7-7-7-7-7-|-7-7-7-7--7-7-(7)-------12-11-(11)\-|
|-5-5-5-5--5--5-5-5-5-5-5-5-|-0-0-0-0--0-0-(0)-2-0-0--x--x-------|
|-5-5-5-5--5--5-5-5-5-5-5-5-|-0-0-0-0--0-0-(0)-2-0-0-10--9--(9)\-|
|-5-5-5-5--5--5-5-5-5-5-5-5-|-0-0-0-0--0-0-(0)-2-0-0-------------|


                 Interlude
  B5  A5          Dadd9                Bm                G6add9
 2/4             4/4
  Gtr II
   E. S +Q         W                   W
   |  |  |
   /  /  /

                  Gtrs I, II
   W               Q  +E. S S S Q.     S S S S S S  S  S S S S S S S S S
|--------------||-^0--(0)-5p0--------|---------------------------0--------||
|--------------||-^7--(7)-----7------|-----------------------------0-----o||
|--------------||-^7--(7)-------7----|-----0--------0----------7-----7----||
|--------------||-^0--(0)------------|---4---4---4-(4)s7-----7------------||
|--------------||-^0--(0)------------|-2-------2-----------5-------------o||
|--------------||-^0--(0)------------|-------------------5-------------5--||
|
| Gtr III
|                  >
|  E. S +E.  S     W                   W
|--------------||--------------------|------------------------------------||
|--------------||--------------------|-----------------------------------o||
|-11--9-(9)\---||--------------------|------------------------------------||
|--9--7-(7)\---||-^0-----------------|------------------------------------||
|--9--7-(7)\---||-^0-----------------|-----------------------------------o||
|--9--7-(7)\-0-||-^0-----------------|------------------------------------||


  2.
  Bsus2                      Gsus2         D/G
  Gtrs II, IV
  Q  E. S E   E   +S S S S   Q     E. S +S S Q     E
  |  |  | |   |    | | | |   |     |  |  | | |     |
  /  /  / /   /    / / / /   /     /  /  / / /     /

  Gtr III
  Q  Q    S S S S  S S S S   E S S E. S  S S E S S S S
|--------------------------|-------5--5--5-5-5-5-5-5-5-|
|----2---------------------|-------8--8--8-7-7-7-7-7-7-|
|-4--4----4s6-6s7--7s6-6-0-|-------7--7--7-7-7-7-7-7-7-|
|-4--4----x---x----x---x-0-|-5-5-5-5--5--5-5-5-5-5-5-5-|
|-2--2----2s4-4s5--5s4-4-0-|-5-5-5-5--5--5-5-5-5-5-5-5-|
|--------------------------|-5-5-5-5--5--5-5-5-5-5-5-5-|


                                       Bridge
  Dadd9                                 A/C#
  Q     E.   S +S  S S S  S  E   S      Q  E. S +E    E   Q
  |     |    |  |  | | |  |  |   |      |  |  |  |    |   |
  /     /    /  /  / / /  /  /   /      /  /  /  /    /   /

                     PM|
  E S S E  S S +S  S S S  S  E  +S      Q  E. S +S  S S S S S S S
|-0-0-0-0--0-0-(0)-------------------||---------------------------|
|-7-7-7-7--7-7-(7)-------------------||-5--5--5-(5)---------------|
|-7-7-7-7--7-7-(7)-------12-11-(11)\-||-6--6--6-(6)-7-6-7-9-7-7---|
|-0-0-0-0--0-0-(0)-2-0-0--x--x-------||-7--7--7-(7)-x-x-x-x-x-x---|
|-0-0-0-0--0-0-(0)-2-0-0-10--9--(9)\-||-4--4--4-(4)-5-4-5-7-5-5-0-|
|-0-0-0-0--0-0-(0)-2-0-0-------------||---------------------------|


  Bsus2                     Gsus2   D/G
  Q  E. S +S S Q.           Q  E. S S S E  +S S S S
  |  |  |  | | |            |  |  | | | |   | | | |
  /  /  /  / / /            /  /  / / / /   / / / /

  Q  E. S  S S E  S S S S   Q  E. S S S Q.
|----2--2--2-2-2--2-2-----|-5--5--5-5-5-5-----------|
|----2--2--2-2-2--2-2-----|-8--8--8-7-7-7-----------|
|----4--4--4-4-4--4-4-----|-7--7--7-7-7-7-----------|
|-4--4--4--4-4-4--4-4-----|-5--5--5-5-5-5-----------|
|-2--2--2--2-2-2--2-2-----|-5--5--5-5-5-5-----------|
|---------------------0-0-|-5--5--5-5-5-5-----------|


 Interlude
  Dadd9                 A         Asus4     A
  Gtrs I, II
  Q.   S S S S Q  S S    E. S S S E +E. S S S S S
|-0------5p0----------|--0--0-0-0-0-(0)-0-0-------|
|-7----------7----0-0-|--5--5-5-5-5-(5)-5-5-5-0-0-|
|-7------------7--0-0-|--6--6-6-6-7-(7)-7-7-6-0-0-|
|-0---------------0-0-|--7--7-7-7-7-(7)-7-7-7-0---|
|-0---------------0-0-|--0--0-0-0-0-(0)---0-0-0---|
|-0----0----------0-0-|-----------------------0---|
|
| Gtr III
| >
| W                     +H.               Q
|-0-------------------|-(0)-----------------------|
|-7-------------------|-(7)-----------------------|
|-7-------------------|-(7)-----------------------|
|-0-------------------|-(0)-----------------------|
|-0-------------------|-(0)-----------------------|
|-0-------------------|-(0)-----------------------|


  Gsus2   D/G             Dadd9
  Gtrs I, II
  Q  E. S S S E S S S S   Q  E. S S S S E S S S
|-5--5--5-5-5-5-5-5-5---|-0--0--0-0-0-0-0---0-0-||
|-8--8--8-7-7-7-7-5-5-7-|-7--7--7-5-5-5-5-8-5-7-||
|-7--7--7-7-7-7-7-7-7-7-|-7--7--7-7-7-7-7-7-7-7-||
|-5--5--5-5-5-5-5-5-5-0-|-0--0--0-0-0-0-0-0-0-0-||
|-5--5--5-5-5-5-5-5-5-0-|-0--0--0-0-0-0-0-------||
|-5--5--5-5-5-5-5-5-5-0-|-0--0--0-0-0-0-0-------||


   Bridge
    Dadd9                   A        Asus4     A
    Q  E. S S S E S S S S   E. S S S E +E. S S S S S
||--0--0--5p0-------0-----|-0--0-0-0-0-(0)-0-0-------|
||o-7--7------7---7-7-0-0-|-5--5-5-5-5-(5)-5-5-5-0-0-|
||--7--7--------7-7-7-0-0-|-6--6-6-6-7-(7)-7-7-6-0-0-|
||--0--0----------0---0-0-|-7--7-7-7-7-(7)-7-7-7-0---|
||o-0--0--------------0-0-|-0--0-0-0-0-(0)---0-0-0---|
||--0--0------------------|----------------------0---|


  1.
  Gsus2   D/G             Dadd9
  Q  E. S S S E S S S S   Q  E. S S S S E S S S
|-5--5--5-5-5-5-5-5-5---|-0--0--0-0-0-0-0---0-0--||
|-8--8--8-7-7-7-7-5-5-7-|-7--7--7-5-5-5-5-8-5-7-o||
|-7--7--7-7-7-7-7-7-7-7-|-7--7--7-7-7-7-7-7-7-7--||
|-5--5--5-5-5-5-5-5-5-0-|-0--0--0-0-0-0-0-0-0-0--||
|-5--5--5-5-5-5-5-5-5-0-|-0--0--0-0-0-0-0-------o||
|-5--5--5-5-5-5-5-5-5-0-|-0--0--0-0-0-0-0--------||


  2.
  Gsus2   D/G                D
  Gtrs I, II
  Q  E. S S S E S S   S  S   Q  E. S S S S E     S S S
|-5--5--5-5-5-5-5-5---5----|-0--0--0-0-0-0-0-------0-0-|
|-8--8--8-7-7-7-7-5---5--7-|-7--7--7-5-5-5-5-----8-5-7-|
|-7--7--7-7-7-7-7-7---7--7-|-7--7--7-7-7-7-7-----7-7-7-|
|-5--5--5-5-5-5-5-5---5--0-|-0--0--0-0-0-0-0-----0-0-0-|
|-5--5--5-5-5-5-5-5---5--0-|-0--0--0-0-0-0-0-----------|
|-5--5--5-5-5-5-5-5---5--0-|-0--0--0-0-0-0-0-----------|
|
| Gtr III
| H       Q     E     E      Q  E. S S S E   +S  S S S
|--------------------------|---------------------------|
|--------------------------|-7--7--7-7-7-7---(7)-7-7-7-|
|--------------------------|-7--7--7-7-7-7---(7)-7-7-7-|
|--------------------------|-0--0--0-0-0-0---(0)-0-0-0-|
|--------------------------|-0--0--0-0-0-0---(0)-0-0-0-|
|-------------------/14\---|-0--0--0-0-0-0---(0)-0-0-0-|


                                Chorus
                                 Bsus2
                                 Gtrs II, IV
  W                              Q  E. S +S S Q.
                                 |  |  |  | | |
                                 /  /  /  / / /

  Gtrs II, III                   Gtr III
  PM|
  S S S S S E E S S S  S  E S    Q  Q     S S S S S S S S
|-----------------------------||--------------------------|
|---------------0-------------||----2---------------------|
|-----7---7-----0-7-0-11-12-0-||-4--4-----4s6-6s7-7s6-6-0-|
|-----x---x-----0-x-0--x--x-0-||-4--4-----x---x---x---x-0-|
|-0-0-5---5-0-0---5----9-10---||-2--2-----2s4-4s5-5s4-4-0-|
|-0-0---0---0-0---------------||--------------------------|


  Gsus2        D/G              Dadd9
  Q     E.   S E   Q.           Q     E S S +S  S S S  S  S S   S
  |     |    | |   |            |     | | |  |  | | |  |  | |   |
  /     /    / /   /            /     / / /  /  / / /  /  / /   /

                                                  PM|
  E S S E  S S S S E  S S S S   E S S E S S +S  S S S  S  E    +S
|-------5--5-5-5-5-5--5-5-5-5-|-0-0-0-0-0-0-(0)---------------------|
|-------8--8-8-7-7-7--7-7-7-7-|-7-7-7-7-7-7-(7)---------------------|
|---7-7-7--7-7-7-7-7--7-7-7-7-|-7-7-7-7-7-7-(7)-------12-11---(11)\-|
|---5-5-5--5-5-5-5-5--5-5-5-5-|-0-0-0-0-0-0-(0)-2-0-0--x--x---------|
|-5-5-5-5--5-5-5-5-5--5-5-5-5-|-0-0-0-0-0-0-(0)-2-0-0-10--9----(9)\-|
|-5-5-5-5--5-5-5-5-5--5-5-5-5-|-0-0-0-0-0-0-(0)-2-0-0---------------|


                                  Bsus2
  Q    E.   S +S  S Q       E     Q  E. S +S S S S S  E S
  |    |    |  |  | |       |     |  |  |  | | | | |  | |
  /    /    /  /  / /       /     /  /  /  / / / / /  / /

                      PM
  E. S E  S S +S  S S S S E   S   Q  E. S  S S S S S  E S
|----0-0--0-0-(0)---------------|-------------------------|
|----7-7--7-7-(7)---------------|----2--------------------|
|----7-7--7-7-(7)-------6-7-----|-4--4--0--4s6-6s7-x-12---|
|-0--0-0--0-0-(0)-2-0-0-x-x---0-|-4--4--0--x---x---x--x-0-|
|-0--0-0--0-0-(0)-2-0-0-4-5---0-|-2--2-----2s4-4s5-x-10-0-|
|-0--0-0--0-0-(0)-2-0-0---------|-------------------------|


  Gsus2         D/G           Dadd9
  Q     E. S +S S Q     E     Q     E.   S  E    Q.
  |     |  |  | | |     |     |     |    |  |    |
  /     /  /  / / /     /     /     /    /  /    /

                                                 PM-|
  E S S E. S  S S E S S S S   E S S E  S S +S  S S  S  S  E  +S
|-------5--5--5-5-5-5-5-5-5-|-0-0-0-0--0-0-(0)--------------------|
|-------8--8--8-7-7-7-7-7-7-|-7-7-7-7--7-7-(7)--------------------|
|-------7--7--7-7-7-7-7-7-7-|-7-7-7-7--7-7-(7)--------12-11-(11)\-|
|-5-5-5-5--5--5-5-5-5-5-5-5-|-0-0-0-0--0-0-(0)-2-0--0--x--x-------|
|-5-5-5-5--5--5-5-5-5-5-5-5-|-0-0-0-0--0-0-(0)-2-0--0-10--9--(9)\-|
|-5-5-5-5--5--5-5-5-5-5-5-5-|-0-0-0-0--0-0-(0)-2-0--0-------------|


                                 Bsus2
  Q    E S S +S  S S S S S S S   Q  E.     S +S S Q.
  |    | | |  |  | | | | | | |   |  |      |  | | |
  /    / / /  /  / / / / / / /   /  /      /  / / /

                     PM
  E. S E S S +S  S S S S E   S   Q  S  S S S  S S S S S S S S
|----0-0-0-0-(0)---------------|------------------------------|
|----7-7-7-7-(7)---------------|----2--2-2--------------------|
|----7-7-7-7-(7)-------6-7-----|----4--4-4-0--4s6-6s7-7s6-6-0-|
|-0--0-0-0-0-(0)-2-0-0-x-x---0-|-4--4--4-4-0--x---x---x---x-0-|
|-0--0-0-0-0-(0)-2-0-0-4-5---0-|-2--2--2-2----2s4-4s5-5s4-4-0-|
|-0--0-0-0-0-(0)-2-0-0---------|------------------------------|


  Gsus2        D/G
  Q     E. S E   Q.
  |     |  | |   |
  /     /  / /   /

  E S S E. S S S E  +S  S S S
|-------5--5-5-5-5--(5)-5-5---||
|---8-8-8--8-8-7-7--(7)-7-7-7-||
|---7-7-7--7-7-7-7--(7)-7-7-7-||
|-5-5-5-5--5-5-5-5--(5)-5-5-0-||
|-5-5-5-5--5-5-5-5--(5)-5-5---||
|-5-5-5-5--5-5-5-5--(5)-5-5---||


   Outro
    Dadd9                 A
    Gtr III
                                     |------6------| |-3-|   |-3-|
    Q  E. S S S E S S E   Q  E  S S  S  S   S  S S S T T T S S S S
||--0--0--0-0---------0-|-0--0--0-0-10--9---7----------------------|
||o-7--7--7-5-5-8-8-8-5-|-5--5--5-5-----------10-8-7-7h8p7---------|
||--7--7--7-7-7-7-7-7-7-|-6--6-----------------------------9-7-----|
||--0--0--0-0-0-0-0-0-0-|-7--7---------------------------------9-7-|
||o-0--0--0-0-0-0-0-0-0-|-0--0-------------------------------------|
||--0--0--0-0-0-0-0-0-0-|------------------------------------------|
|
|   Gtrs II, IV
|   Q  E. S S S E S S E   Q  E.   S  S    S    E     S     S E
||--0--0--------------0-|-0--0----0--0----0----0-----0-----0-------|
||o-7--7------8-8-8-8-5-|-5--5----5-(5)---5----5-----5-----5-------|
||--7--7------7-7-7-7-7-|-6--6----6-(6)---6----6-----6-----6-------|
||--0--0------0-0-0-0-0-|-7--7----7-(7)---7----7-----7-----7-------|
||o-0--0--0-0-0-0-0-0-0-|-0--0----0-(0)---0----0-----0-----0-0-----|
||--0--0--0-0-0-0-0-0-0-|------------------------------------0-----|


  Gsus2   D/G           D
                        PM|
  Q  E. S S S E S S E   S S S S S E E S S S  S  E S
|-5--5--5-5-5-5-5-5-5-|-----------------------------|
|-8--8--8-7-7-7-7-5-5-|---------------0-------------|
|-7--7--7-7-7-7-7-7-7-|-----7---7-----0-7-0-11-12-0-|
|-5--5--5-5-5-5-5-5-5-|-----x---x-----0-x-0--x--x-0-|
|-5--5--5-5-5-5-5-5-5-|-0-0-5---5-0-0---5----9-10---|
|-5--5--5-5-5-5-5-5-5-|-0-0---0---0-0---------------|
|
|                       PM|
| Q  E. S S S E S S E   S S S S S E E S S S  S  E S
|-5--5--5-5-5-5-5-5-5-|-----------------------------|
|-8--8--8-7-7-7-7-5-5-|---------------0-------------|
|-7--7--7-7-7-7-7-7-7-|-----7---7-----0-7-0-11-12-0-|
|-5--5--5-5-5-5-5-5-5-|-----x---x-----0-x-0--x--x-0-|
|-5--5--5-5-5-5-5-5-5-|-0-0-5---5-0-0---5----9-10---|
|-5--5--5-5-5-5-5-5-5-|-0-0---0---0-0---------------|


  Dadd9                 A
                                                  |-3-|
  Q  E. S S S E S S E   Q  E  E      +E.        S T T T T T T T T T
|-0--0--0-0-----------|-0--0-----------------------------------------|
|-7--7--7-7-8-8-8-8-0-|-5--5-----------------------------------------|
|-7--7--7-7-7-7-7-7-0-|-6--6--6tr7---(6tr7)-----4-6h7p6p4------------|
|-0--0--0-0-0-0-0-0-0-|-7--7------------------------------7p5p4------|
|-0--0--0-0-0-0-0-0-0-|-0--0------------------------------------7p5--|
|-0--0--0-0-0-0-0-0---|----------------------------------------------|
|
| Q  E. S S S E S S E   Q  E.      S  S     S E   S     S   E
|-0--0--------------0-|-0--0-------0--0-----0-0---0-----0------------|
|-7--7------8-8-8-8-5-|-5--5-------5-(5)----5-5---5-----5------------|
|-7--7------7-7-7-7-7-|-6--6-------6-(6)----6-6---6-----6------------|
|-0--0------0-0-0-0-0-|-7--7-------7-(7)----7-7---7-----7------------|
|-0--0--0-0-0-0-0-0-0-|-0--0-------0-(0)----0-0---0-----0---0--------|
|-0--0--0-0-0-0-0-0-0-|-------------------------------------0--------|


  Gsus2   D/G           D
                        PM|
  Q  E. S S S E S S E   S S S S S E E S S S  S  E S  3x
|-5--5--5-5-5-5-5-5-5-|------------------------------||
|-8--8--8-7-7-7-7-5-5-|---------------0-------------o||
|-7--7--7-7-7-7-7-7-7-|-----7---7-----0-7-0-11-12-0--||
|-5--5--5-5-5-5-5-5-5-|-----x---x-----0-x-0--x--x-0--||
|-5--5--5-5-5-5-5-5-5-|-0-0-5---5-0-0---5----9-10---o||
|-5--5--5-5-5-5-5-5-5-|-0-0---0---0-0----------------||
|
|                       PM|
| Q  E. S S S E S S E   S S S S S E E S S S  S  E S  3x
|-5--5--5-5-5-5-5-5-5-|------------------------------||
|-8--8--8-7-7-7-7-5-5-|---------------0-------------o||
|-7--7--7-7-7-7-7-7-7-|-----7---7-----0-7-0-11-12-0--||
|-5--5--5-5-5-5-5-5-5-|-----x---x-----0-x-0--x--x-0--||
|-5--5--5-5-5-5-5-5-5-|-0-0-5---5-0-0---5----9-10---o||
|-5--5--5-5-5-5-5-5-5-|-0-0---0---0-0----------------||




--------------------------------------------------------------------------------


Duration Legend
---------------
W - whole; H - half; Q - quarter; E - 8th; S - 16th; T - 32nd; X - 64th; a - acciaccatura
+ - note tied to previous; . - note dotted; .. - note double dotted
Uncapitalized letters represent notes that are staccato (1/2 duration)
Irregular groupings are notated above the duration line
Duration letters will always appear directly above the note/fret number it represents the
duration for.  Duration letters with no fret number below them represent rests.  Multi-
bar rests are notated in the form Wxn, where n is the number of bars to rest for.  Low
melody durations appear below the staff

Tablature Legend
----------------
 h   - hammer-on
 p   - pull-off
 b   - bend
 pb  - pre-bend
 r   - bend release (if no number after the r, then release immediately)
 /\  - slide into or out of (from/to "nowhere")
 s   - legato slide
 S   - shift slide
 - natural harmonic
[n]  - artificial harmonic
n(n) - tapped harmonic
 ~   - vibrato
 tr  - trill
 T   - tap
 TP  - trem. picking
 PM  - palm muting
\n/  - tremolo bar dip; n = amount to dip
 \n  - tremolo bar down
 n/  - tremolo bar up
/n\  - tremolo bar inverted dip
 =   - hold bend; also acts as connecting device for hammers/pulls
 <> - volume swell (louder/softer)
 x   - on rhythm slash represents muted slash
 o   - on rhythm slash represents single note slash

Misc Legend
-----------
 |  - bar
||  - double bar
||o - repeat start
o|| - repeat end
*|  - double bar (ending)
 :  - bar (freetime)
 $  - Segno
 &  - Coda
Tempo markers -  = BPM(8/16=s8/s16), where s8 = swing 8ths, s16 = swing 16ths


comments
We did not receive enough feedback on this tab! Please rate:
print report bad tab
1 2 3 4 5
I want to post or [tab]
guest
You may want to rate the tab now too:
select rating
Please do not post tabs as comments. Select "correction" instead!