Oops, an error
Loading. Please wait.

The Nexus Tab

ver1
ver1

Whole song

Interactive

More versions @911Tabs.com
9,430 views 87 this week
5 commentsread comments
1 2 3 4 5
excellent!
x 5
Autoscroll
+/-
esc
set tempo
stop
Contributor
Difficulty
Tuning
intermediate
A# F A# D# G C
Hey! There's an official Ultimate Guitar app which is ideal
for learning songs when you're away from computer. Get the app
WARNING: You are trying to view
                                    content from Ultimate-Guitar.com
                                    in an unauthorized application,
                                    which is prohibited.

                                    Please use an official Ultimate
                                    Guitar Tabs application for iPhone,
                                    iPad or Android to access legitimate
                                    chords, guitar, bass, and drum tabs
                                    from Ultimate-Guitar.com database.

                                    Type "ultimate guitar tabs" in Apple
                                    App Store's or Android Market's
                                    search to find the application.
-------------------------------------------------------------------------------
                             THE NEXUS - Amaranthe
-------------------------------------------------------------------------------

Tabbed by: Toke Gerdts
Email: Amnesian48@gmail.com

Hey everyone.
This is how I play The Nexus by Amaranthe.
Some of the parts are a bit sketchy, but I have done my best :)
Enjoy!

Intro (After Break):
C |--------------------------------------------------------|
G |--------------------------------------------------------|
Eb|--------------------------------------------------------|
Bb|--------------------------------------------------------|
F |--------------------------------------------------------|
Bb|-0-0-0--0-0-0------0-0-0-0-0-0-0--0-0-0------0-0-0-0----|
    . . .  . . .      . . . . . . .  . . .      . . . .
C |----------------------------------------------|
G |----------------------------------------------|
Eb|----------------------------------------------|
Bb|----------------------------------------------|
F |----------------------------------------------|
Bb|-0-0-0--0-0-0------0-0-0-0-0h7h10---0h7h10----|
    . . .  . . .      . . . .
C |--------------------------------------------------------------------------|
G |--------------------------------------------------------------------------|
Eb|--------------------------------------------------------------------------|
Bb|-----------------------------------------------------5---------0h3---0h1--|
F |-----------------------------------------------------5---------0h3---0h1--|
Bb|-0-0-0--0-0-0------0-0-0-0-0-0-0--0-0-0------0-0-0-0-5---------0h3---0h1--|
    . . .  . . .      . . . . . . .  . . .      . . . .

Verse:
C |----------------------------------------------|
G |----------------------------------------------|
Eb|----------------------------------------------|
Bb|-0--0----------0--0---------------------------|
F |-0--0----------0--0---------------------------|
Bb|-0--0----------0--0----------0h7h10---0h7h10--|
    .  .          .  .
C |-----------------------------------------------------------|
G |-----------------------------------------------------------|
Eb|-----------------------------------------------------------|
Bb|--------------------------------------5---------0h3---0h1--|
F |--------------------------------------5---------0h3---0h1--|
Bb|-0-0-0--0-0-0------0-0-0--0-0-0-------5---------0h3---0h1--|
    . . .  . . .      . . .  . . .              
C |----------------------------------------------|
G |----------------------------------------------|
Eb|----------------------------------------------|
Bb|-0--0----------0--0---------------------------|
F |-0--0----------0--0---------------------------|
Bb|-0--0----------0--0----------0h7h10---0h7h10--|
    .  .          .  .
C |-----------------------------------------------------------|
G |-----------------------------------------------------------|
Eb|-----------------------------------------------------------|
Bb|--------------------------------------5--------------------|
F |--------------------------------------5--------------------|
Bb|-0-0-0--0-0-0------0-0-0--0-0-0-------5--------------------|
    . . .  . . .      . . .  . . .   

Pre-Chorus: 
C |--------------------------------------------------------|
G |--------------------------------------------------------|
Eb|--------------------------------------------------------|
Bb|--------------------------------------------------------|
F |--------------------------------------------------------|
Bb|-5-5-5--5-5-5------5-5-5-5-5-5-5--5-5-5------5-5-5-5----|
    . . .  . . .      . . . . . . .  . . .      . . . .
C |--------------------------------------------------------|
G |--------------------------------------------------------|
Eb|--------------------------------------------------------|
Bb|--------------------------------------------------------| <- Missing a small 
F |--------------------------------------------------------| fill here 
Bb|-1-1-1--1-1-1------1-1-1-1-1-1-1--1-1-1------1-1-1-1----| (Not sure
    . . .  . . .      . . . . . . .  . . .      . . . .       how it's played)
C |--------------------------------------------------------|
G |--------------------------------------------------------|
Eb|--------------------------------------------------------|
Bb|--------------------------------------------------------|
F |--------------------------------------------------------|
Bb|-5-5-5--5-5-5------5-5-5-5-5-5-5--5-5-5------5-5-5-5----|
    . . .  . . .      . . . . . . .  . . .      . . . .
C |----------------------------|
G |----------------------------|
Eb|----------------------------|
Bb|-1------------12\-----------|
F |-1------------12\-----------|
Bb|-1------------12\-----------|

Chorus:
C |-------------------------------------------------------------------|
G |-------------------------------------------------------------------|
Eb|-------------------3--------------------------5--------3--------2--|
Bb|-5--------1--------3--------3--------5--------5--------3--------3--|
F |-5--------1--------1--------3--------5--------3--------1--------0--|
Bb|-5--------1-----------------3--------5-----------------------------|

C |-------------------------------------------------------------------|
G |-------------------------------------------------------------------|
Eb|-------------------3-----------------5--------3--------5--------2--|
Bb|-5--------1--------3--------3--------5--------3--------5--------3--|
F |-5--------1--------1--------3--------3--------1--------3--------0--|
Bb|-5--------1-----------------3--------------------------------------|

Repeated Intro:
C |--------------------------------------------------------|
G |--------------------------------------------------------|
Eb|--------------------------------------------------------|
Bb|--------------------------------------------------------|
F |--------------------------------------------------------|
Bb|-0-0-0--0-0-0------0-0-0-0-0-0-0--0-0-0------0-0-0-0----|
    . . .  . . .      . . . . . . .  . . .      . . . .
C |----------------------------------------------|
G |----------------------------------------------|
Eb|----------------------------------------------|
Bb|----------------------------------------------|
F |----------------------------------------------|
Bb|-0-0-0--0-0-0------0-0-0-0-0h7h10---0h7h10----|
    . . .  . . .      . . . .
C |--------------------------------------------------------------------------|
G |--------------------------------------------------------------------------|
Eb|--------------------------------------------------------------------------|
Bb|-----------------------------------------------------5---------0h3---0h1--|
F |-----------------------------------------------------5---------0h3---0h1--|
Bb|-0-0-0--0-0-0------0-0-0-0-0-0-0--0-0-0------0-0-0-0-5---------0h3---0h1--|
    . . .  . . .      . . . . . . .  . . .      . . . .

Verse:
C |----------------------------------------------|
G |----------------------------------------------|
Eb|----------------------------------------------|
Bb|-0--0----------0--0---------------------------|
F |-0--0----------0--0---------------------------|
Bb|-0--0----------0--0----------0h7h10---0h7h10--|
    .  .          .  .
C |-----------------------------------------------------------|
G |-----------------------------------------------------------|
Eb|-----------------------------------------------------------|
Bb|--------------------------------------5---------0h3---0h1--|
F |--------------------------------------5---------0h3---0h1--|
Bb|-0-0-0--0-0-0------0-0-0--0-0-0-------5---------0h3---0h1--|
    . . .  . . .      . . .  . . .              
C |----------------------------------------------|
G |----------------------------------------------|
Eb|----------------------------------------------|
Bb|-0--0----------0--0---------------------------|
F |-0--0----------0--0---------------------------|
Bb|-0--0----------0--0----------0h7h10---0h7h10--|
    .  .          .  .
C |-----------------------------------------------------------|
G |-----------------------------------------------------------|
Eb|-----------------------------------------------------------|
Bb|--------------------------------------5--------------------|
F |--------------------------------------5--------------------|
Bb|-0-0-0--0-0-0------0-0-0--0-0-0-------5--------------------|
    . . .  . . .      . . .  . . .   

Pre-Chorus: 
C |--------------------------------------------------------|
G |--------------------------------------------------------|
Eb|--------------------------------------------------------|
Bb|--------------------------------------------------------|
F |--------------------------------------------------------|
Bb|-5-5-5--5-5-5------5-5-5-5-5-5-5--5-5-5------5-5-5-5----|
    . . .  . . .      . . . . . . .  . . .      . . . .
C |--------------------------------------------------------|
G |--------------------------------------------------------|
Eb|--------------------------------------------------------|
Bb|--------------------------------------------------------| <- Missing a small 
F |--------------------------------------------------------|    fill here
Bb|-1-1-1--1-1-1------1-1-1-1-1-1-1--1-1-1------1-1-1-1----|    (Not sure
    . . .  . . .      . . . . . . .  . . .      . . . .         how it's played)
C |--------------------------------------------------------|
G |--------------------------------------------------------|
Eb|--------------------------------------------------------|
Bb|--------------------------------------------------------|
F |--------------------------------------------------------|
Bb|-5-5-5--5-5-5------5-5-5-5-5-5-5--5-5-5------5-5-5-5----|
    . . .  . . .      . . . . . . .  . . .      . . . .
C |----------------------------|
G |----------------------------|
Eb|----------------------------|
Bb|-1------------12\-----------|
F |-1------------12\-----------|
Bb|-1------------12\-----------|

Chorus:
C |-------------------------------------------------------------------|
G |-------------------------------------------------------------------|
Eb|-------------------3--------------------------5--------3--------2--|
Bb|-5--------1--------3--------3--------5--------5--------3--------3--|
F |-5--------1--------1--------3--------5--------3--------1--------0--|
Bb|-5--------1-----------------3--------5-----------------------------|

C |-------------------------------------------------------------------|
G |-------------------------------------------------------------------|
Eb|-------------------3-----------------5--------3--------5--------2--|
Bb|-5--------1--------3--------3--------5--------3--------5--------3--|
F |-5--------1--------1--------3--------3--------1--------3--------0--|
Bb|-5--------1-----------------3--------------------------------------|

Bridge:
C |---------------------------------------------------------------------------|
G |---------------------------------------------------------------------------|
Eb|---------------------------------------------------------------------------|
Bb|---------------------------------------------------------------------------|
F |---------------------------------------------------------------------------|
Bb|-0--1------0-0-8-12--0-7-8-10----0-0-0--0-0-0--0-0-0--0-0-0--0-12----0-10--|
                                    . . .  . . .  . . .  . . .  .       .
C |---------------------------------------------------------------------------|
G |---------------------------------------------------------------------------|
Eb|---------------------------------------------------------------------------|
Bb|---------------------------------------------------------------------------|
F |---------------------------------------------------------------------------|
Bb|-0--1------0-0-8-12--0-7-8-10----0-0-0--0-0-0--0-0-0--0-0-0--0-8-----0-7---|
                                    . . .  . . .  . . .  . . .  .       .
C |---------------------------------------------------------------------------|
G |---------------------------------------------------------------------------|
Eb|---------------------------------------------------------------------------|
Bb|---------------------------------------------------------------------------|
F |---------------------------------------------------------------------------|
Bb|-0--1------0-0-8-12--0-7-8-10----0-0-0--0-0-0--0-0-0--0-0-0--0-12----0-10--|
                                    . . .  . . .  . . .  . . .  .       .
C |---------------------------------------------------------------------------|
G |---------------------------------------------------------------------------|
Eb|---------------------------------------------------------------------------|
Bb|---------------------------------5-------------------0h3--------0h1--------|
F |---------------------------------5-------------------0h3--------0h1--------|
Bb|-0--1------0-0-8-12--0-7-8-10----5-------------------0h3--------0h1--------|

Solo (Some runs/leaps that I couldn't figure out):
C |--------------------------------------------------------------------------|
G |-10h11t18--13b15br13--11--13h15p11---10h11p10-------13--------------------|
Eb|----------------------------------------------12-10----12-10-10h12-10h12~-|
Bb|--------------------------------------------------------------------------|
F |--------------------------------------------------------------------------|
Bb|--------------------------------------------------------------------------|

C |--------------------------------------------------------------------------|
G |---------------------------------------10h11p10-------13----13----13------|
Eb|---------------------------10-12-14~------------12p10----12----10----9~---|
Bb|-12-14-15-12------10-12-14------------------------------------------------|
F |--------------------------------------------------------------------------|
Bb|--------------------------------------------------------------------------|

C |--------------------------------------------15b17-15b17----|
G |-------------------13h15h17b19-17b19br17p15----------------|
Eb|----------14h15h17-----------------------------------------|
Bb|-14h15h17--------------------------------------------------|
F |-----------------------------------------------------------|
Bb|-----------------------------------------------------------|

C |-------17----17h18p17-15-13t18p15p13-13h15-13h15~-------------------------|
G |-15-17----15------------------------------------------15-17-18-15~--------|
Eb|--------------------------------------------------------------------------|
Bb|--------------------------------------------------------------------------|
F |--------------------------------------------------------------------------|
Bb|--------------------------------------------------------------------------|

C |----------13h15h17~-------------17h18h20t22p20p18p17-------------------------------------------|
G |-13h15h17--------------17h18h20----------------------20p18p17---------------------------15-----|
Eb|--------------------------------------------------------------19p17p15------------------17b19--|
Bb|-----------------------------------------------------------------------19p17p15----------------|
F |--------------------------------------------------------------------------------15~------------|
Bb|-----------------------------------------------------------------------------------------------|

[I have the will inside my mind. There is a voice I cant deny..]
C |-------------------------------------------------------------------------------|
G |-------------------------------------------------------------------------------|
Eb|-------------------------------------------------------------------------------|
Bb|----------------------------------------------------1----------------12\-------|
F |----------------------------------------------------1----------------12\-------|
Bb|----------------------------------------------------1----------------12\-------|

Chorus:
C |-------------------------------------------------------------------|
G |-------------------------------------------------------------------|
Eb|-------------------3--------------------------5--------3--------2--|
Bb|-5--------1--------3--------3--------5--------5--------3--------3--|
F |-5--------1--------1--------3--------5--------3--------1--------0--|
Bb|-5--------1-----------------3--------5-----------------------------|

C |-----------------------------------------------------------------------------------------------|
G |-----------------------------------------------------------------------------------------------|
Eb|-------------------3-----------------5--------3--------5---------------------------------------|
Bb|-5--------1--------3--------3--------5--------3--------5---------------------------------------|
F |-5--------1--------1--------3--------3--------1--------3---------------------------------------|
Bb|-5--------1-----------------3--------------------------------------0-0-0--0-0-0--0-0-0--0-0-0--|
                                                                      . . .  . . .  . . .  . . .
Outro:
C |--------------------------------------------------------|
G |--------------------------------------------------------|
Eb|--------------------------------------------------------|
Bb|--------------------------------------------------------|
F |--------------------------------------------------------|
Bb|-0-0-0--0-0-0------0-0-0-0-0-0-0--0-0-0------0-0-0-0----|
    . . .  . . .      . . . . . . .  . . .      . . . .
C |----------------------------------------------|
G |----------------------------------------------|
Eb|----------------------------------------------|
Bb|----------------------------------------------|
F |----------------------------------------------|
Bb|-0-0-0--0-0-0------0-0-0-0-0h7h10---0h7h10----|
    . . .  . . .      . . . .
C |----------------------------------------------------------------------------------|
G |----------------------------------------------------------------------------------|
Eb|----------------------------------------------------------------------------------|
Bb|-----------------------------------------------------5---------0h3---0h1----0--0--|
F |-----------------------------------------------------5---------0h3---0h1----0--0--|
Bb|-0-0-0--0-0-0------0-0-0-0-0-0-0--0-0-0------0-0-0-0-5---------0h3---0h1----0--0--|
    . . .  . . .      . . . . . . .  . . .      . . . .                        .  .





************************************

| /   slide up
| \   slide down
| h   hammer-on
| p   pull-
| t   tapping
| .   palm mute
| ~   vibrato
| +   harmonic
| x   Mute note
| b   Bend
| pb  Pre-bend
| br  Bend release
| pbr Pre-bend release
| brb Bend release bend

************************************
comments
print report bad tab
5 comments total. Showing first comments.
0 reply
Logan_B wrote on March 6 2013, 06:03 pm

This is a really good tab. Thanks for the post.

0 reply
BloodlessRose wrote on March 29 2013, 10:52 pm

This is some really good shit, Wish it was on GP6

0 reply
Amnesian48 wrote on March 30 2013, 10:28 am

Yeah sorry, I'm not that good at notating rhythm in GP6 :(

I want to post or [tab]
guest
You may want to rate the tab now too:
select rating
Please do not post tabs as comments. Select "correction" instead!