Oops, an error
Loading. Please wait.

Here We Stand Tab

ver2
ver2

Whole song

Interactive

More versions @911Tabs.com
5,638 views 3 this week
no commentswrite comment
1 2 3 4 5
accurate
x 3
Autoscroll
+/-
esc
set tempo
stop
Hey! There's an official Ultimate Guitar app which is ideal
for learning songs when you're away from computer. Get the app
WARNING: You are trying to view
                                    content from Ultimate-Guitar.com
                                    in an unauthorized application,
                                    which is prohibited.

                                    Please use an official Ultimate
                                    Guitar Tabs application for iPhone,
                                    iPad or Android to access legitimate
                                    chords, guitar, bass, and drum tabs
                                    from Ultimate-Guitar.com database.

                                    Type "ultimate guitar tabs" in Apple
                                    App Store's or Android Market's
                                    search to find the application.
  +++ Song         : Here We Stand
  +++ Artist       : Amber Pacific
  +++ Submitted By : Eyfreel
  +++ Date of Tab  : Nov. 30, 2007


Listen to the cd for the perfect strumming and plucking. I used 2 guitars.
The bridge is sort of 'off' but still sounds good. Hope you'll enjoy this
one. Pls rate... :)

Tunning: Standard
Legend:
    ~ - let ring
    . - palm mute
    x - mute note


INTRO:

e|---2-----0-----------2-----0-----------------|
B|-----0-----0---4-0-----0-----0---------------|
G|-------1-----1-----1-----1-----1-------------|
D|---------------------------------------------| (6x)
A|---------------------------------------------|
E|---------------------------------------------|

VERSE:

 Gtr 1
e|---2-----0-----------2-----0-----------------|
B|-----0-----0---4-0-----0-----0---------------|
G|-------1-----1-----1-----1-----1-------------|
D|---------------------------------------------|
A|---------------------------------------------|
E|---------------------------------------------|
 Gtr 2
e|----2--2--2----------------------------------|
B|----2--2--2----------------------------------|
G|----4--4--4------------1--1--1---------------|
D|----4--4--4------------2--2--2---------------|
A|----2--2--2------------2--2--2---------------|
E|---------------------------------------------|
  "Here we stand again another day has passed us"
  "With it's lack of change"
  "And all we have is what we share"
  "And all we want is someone else to be there"


PRE-CHORUS:

e|----2--2--2----------------------------------|
B|----2--2--2----------------------------------|
G|----4--4--4----------------------------------|
D|----4--4--4---------------4--4--4------------|
A|----2--2--2---------------4--4--4------------|
E|--------------------------2--2--2------------|
"And if the sun will set tonight hold our secrets up

e|---------------------------------------------|
B|---------------------------------------------|
G|-----------------------------------1--1--1---|
D|----6--6--6------------------------2--2--2---|
A|----6--6--6------------------------2--2--2---|
E|----4--4--4----------------------------------|
"to the sky as our shadows grow there's nothing left to hide"

e|----2--2--2----------------------------------|
B|----2--2--2----------------------------------|
G|----4--4--4----------------------------------|
D|----4--4--4---------------6--6--6------------|
A|----2--2--2---------------6--6--6------------|
E|--------------------------4--4--4------------|
"And if you ever doubt you will know that I still wonder"

e|---------------------------------------------|
B|---------------------------------------------|
G|-----------------------------------1--1--1---|
D|----4--4--4------------------------2--2--2---|
A|----4--4--4------------------------2--2--2---|
E|----2--2--2----------------------------------|
"How many times did I compare the stars to your eyes?"


CHORUS:

e|----2--2--2----------------------------------|
B|----2--2--2----------------------------------|
G|----4--4--4----------------------------------|
D|----4--4--4--------4--4--4-------------------|
A|----2--2--2--------4--4--4-------------------|
E|-------------------2--2--2-------------------|
"We will make it through no matter the cost"

e|---------------------------------------------|
B|---------------------------------------------|
G|---------------------------1--1--1-----------|
D|----6--6--6----------------2--2--2-----------|
A|----6--6--6----------------2--2--2-----------|
E|----4--4--4----------------------------------|
"We've gone this far why not find out how it works out for you and me"

e|----2--2--2----------------------------------|
B|----2--2--2----------------------------------|
G|----4--4--4----------------------------------|
D|----4--4--4------4--4--4---------------------|
A|----2--2--2------4--4--4---------------------|
E|-----------------2--2--2---------------------|
"We'll make it through I thought we were lost"

e|---------------------------------------------|
B|---------------------------------------------|
G|---------------------------1--1--1-----------|
D|----6--6--6----------------2--2--2-----------|
A|----6--6--6----------------2--2--2-----------|
E|----4--4--4----------------------------------|
"But somehow we haven't found a way and I hope that we never do"


VERSE 2:

e|--2-----0------------|
B|----0-----0---4-0----|
G|------1-----1-----1--|
D|---------------------|
A|---------------------|
E|---------------------|

 Gtr 1
e|---2-----0-----------2-----0-----------------|
B|-----0-----0---4-0-----0-----0---------------|
G|-------1-----1-----1-----1-----1-------------|
D|---------------------------------------------|
A|---------------------------------------------|
E|---------------------------------------------|

 Gtr 2
e|----2--2--2----------------------------------|
B|----2--2--2----------------------------------|
G|----4--4--4------------1--1--1---------------|
D|----4--4--4------------2--2--2---------------|
A|----2--2--2------------2--2--2---------------|
E|---------------------------------------------|
  "It's hard to get to understand"
  "When all your lives are in our hands"
  "And don't stop when you've never been closer"
  "Just 'cause you don't know what matters most"
  "So it won't always be so clearly right in front of us"

(REPEAT PRE-CHORUS & CHORUS)

BRIDGE:

(This is the last part in the CHORUS before BRIDGE)
e|--------------|------------------------------|
B|--------------|------------------------------|
G|-1--1--1------|------------------------------|
D|-2--2--2------|---------6--6--6---4--4--4----|
A|-2--2--2------|---------6--6--6---4--4--4----|
E|--------------|---------4--4--4---2--2--2----|
"...And I hope that we never do........."

e|---------------------------------------------|
B|---------------------------------------------|
G|--4--4--4----1--1--1-------4--4--4-----------|
D|--4--4--4----2--2--2-------4--4--4---4--4--4-|
A|--2--2--2----2--2--2-------2--2--2---4--4--4-|
E|-------------------------------------2--2--2-|
"Never do............."


e|---------------------------------------------|
B|---------------------------------------------|
G|----4~---------------------------------------|
D|----4~---------------------------6~----------|
A|----2~---------------------------6~----------|
E|---------------------------------4~----------|
"Doesn't really matter how it all began forsaken"

e|---------------------------------------------|
B|---------------------------------------------|
G|----------------------1-1-1-1-1--------------|
D|----4~----------------2-2-2-2-2--------------|
A|----4~----------------2-2-2-2-2--------------|
E|----2~----------------.-.-.-.-.--------------|
"Got this far without knowing who we truly"

e|---------------------------------------------|
B|---------------------------------------------|
G|----4-4-4---4-4-4---4-4-4---1-1-1------------|
D|----4-4-4---4-4-4---4-4-4---2-2-2------------|
A|----2-2-2---x-x-x---x-x-x---2-2-2------------|
E|------------4-4-4---2-2-2--------------------|
"are...                I will never doubt that"

(REPEAT CHORUS)


...end...

[ LYRICS ]

Here we stand again
Another day has passed us
With it's lack of change
And all we have is what we share
And all we want is
Someone else to be there


And if the sun will set tonight
Hold our secrets up to the sky
As our shadows grow there's nothing left to hide
And if you ever doubt
You will know that I still wonder
How many times did I compare
The stars to your eyes?


We will make it through
No matter the cost
We've gone this far
Why not find out how it works out for you and me
We'll make it through
I thought we were lost
But somehow we haven't found a way
And I hope that we never do


It's hard to get to understand
When all your lives are in our hands
And don't stop when you've never been closer
Just 'cause you don't know what matters most
So it won't always be so clearly
Right in front of us


And if the sun will set tonight
Hold our secrets up to the sky
As our shadows grow there's nothing left to hide
And if you ever doubt
You will know that I still wonder
How many times did I compare
The stars to your eyes?


We will make it through
No matter the cost
We've gone this far
Why not find out how it works out for you and me
We'll make it through
I thought we were lost
But somehow we haven't found a way
And I hope that we never do
Never do...

Doesn't really matter how it all began forsaken
Got this far without knowing who we truly are...
I will never doubt that


We will make it through
No matter the cost
We've gone this far
Why not find out how it works out for you and me
We'll make it through
I thought we were lost
But somehow we haven't found a way
And I hope that we never do
Never do...


===============================================================

      :::     Email me at eyfreelonline@yahoo.com     :::
      :::      My URL is www.eyfreel.multiply.com     :::

===============================================================
comments
We did not receive enough feedback on this tab! Please rate:
print report bad tab
1 2 3 4 5
I want to post or [tab]
guest
You may want to rate the tab now too:
select rating
Please do not post tabs as comments. Select "correction" instead!