Oops, an error
Loading. Please wait.

Never Meant Bass Tab

ver2
ver2

Whole song

More versions @911Tabs.com
1,225 views 42 this week
1 commentread comment
1 2 3 4 5
excellent!
x 2
Autoscroll
+/-
esc
set tempo
stop
Contributor
Difficulty
novice
WARNING: You are trying to view
                                    content from Ultimate-Guitar.com
                                    in an unauthorized application,
                                    which is prohibited.

                                    Please use an official Ultimate
                                    Guitar Tabs application for iPhone,
                                    iPad or Android to access legitimate
                                    chords, guitar, bass, and drum tabs
                                    from Ultimate-Guitar.com database.

                                    Type "ultimate guitar tabs" in Apple
                                    App Store's or Android Market's
                                    search to find the application.
American Football
Never Meant
Bass Tab

Tabbed By:
Hardskapunk


Intro: Bass enters at 0:31
  1 . . . 2 . . . 3 . . .
G ------------------------|
D -------------x7-----5---|
A -------3----------------|
E 1-----------------------|

1:12

G --------------------------------|
D --------------------------------|
A --------------------------------|
E 1-------------------------------|

1:31
  1 . . . 2 . . . 3 . . . 1 . . . 2 . . . 3 . . .
G ------------------------------------------------|
D 7-7--7--7--7--7--7--7---5-5--5--5--5--5--5--5---|
A ------------------------------------------------|
E ------------------------------------------------|

2:12
G --------------------------------|
D --------------------------------|
A 3-------------------------------|
E --------------------------------|

These are long (whole) notes:
G --------------------5--------------------------|
D 7-------7-------7-----------7-------7---5------|
A ----8-------8-----------8-------8-----------8--|
E -----------------------------------------------|  x2


Third time around goes like this (2:53); Just figure the timing.
G -----------|---------------------------|--------------------------|
D 7-------7--|10-12-15-14----------------|10-12-15-14---------------|
A ----8------|------------15-------------|------------15---10-------|
E -----------|---------------------------|--------------------------|
              This part 3x                Last (4th) time


Ending (3:25 to end) same as intro
  1 . . . 2 . . . 3 . . .
G ------------------------|
D -------------x7-----5---|
A -------3----------------|
E 1-----------------------|
comments
We did not receive enough feedback on this tab! Please rate:
1 2 3 4 5
1 comment total.
0 reply
jedikittycat wrote on March 31 2014, 09:54 pm

sounds good, really simple.

I want to post or [tab]
guest
You may want to rate the tab now too:
select rating
Please do not post tabs as comments. Select "correction" instead!