Oops, an error
Loading. Please wait.

And Soon The World Will Cease To Be Tab

3,956 views 30 this week
no commentswrite comment
1 2 3 4 5
please rate
Autoscroll
+/-
esc
set tempo
stop
Contributor
Tuning
B E A D F# B
WARNING: You are trying to view
                                    content from Ultimate-Guitar.com
                                    in an unauthorized application,
                                    which is prohibited.

                                    Please use an official Ultimate
                                    Guitar Tabs application for iPhone,
                                    iPad or Android to access legitimate
                                    chords, guitar, bass, and drum tabs
                                    from Ultimate-Guitar.com database.

                                    Type "ultimate guitar tabs" in Apple
                                    App Store's or Android Market's
                                    search to find the application.
#----------------------------------PLEASE NOTE---------------------------------#
#This file is the author's own work and represents their interpretation of the #
#song. You may only use this file for private study, scholarship, or research. #
#------------------------------------------------------------------------------#

AND SOON THE WORLD WILL CEASE TO BE...
As recorded by Amon Amarth
(From the 2003 Album VERSUS THE WORLD)

Transcribed by Unregistered
        



Gtr I (B E A D F# B) - 'Untitled'
Gtr II (B E A D F# B) - 'Untitled'

 Intro
  Q=140
  A5                         A5
 4/4
  Gtr I
  W           +W             W           +W
|-----------|--------------|-----------|--------------|
|-----------|--------------|-----------|--------------|
|-----------|--------------|-----------|--------------|
|-----------|--------------|-----------|--------------|
|-7---------|-(7)----------|-7---------|-(7)----------|
|-5---------|-(5)----------|-5---------|-(5)----------|
|
| Gtr II
| H    H       H     Q  Q    H    H       H     Q  Q
|-----------|--------------|-----------|--------------|
|-----------|--------------|-----------|--------------|
|-----------|--------------|-----------|--------------|
|-7----7----|--7-----7--9--|-7----7----|--7-----7--9--|
|-----------|--------------|-----------|--------------|
|-----------|--------------|-----------|--------------|


  G5                             F5        E5
   W            +W               H.        Q    +W
|-------------|----------------|--------------|----------------|
|-------------|----------------|--------------|----------------|
|-------------|----------------|--------------|----------------|
|-------------|----------------|--------------|----------------|
|--5----------|-(5)------------|-3---------2--|-(2)------------|
|--3----------|-(3)------------|-1---------0--|-(0)------------|
|
|  H     H       H      Q   Q    Q   Q  Q  Q    +Q   Q  E E Q
|-------------|----------------|--------------|----------------|
|-------------|----------------|--------------|----------------|
|-------------|----------------|-----5--7-----|------5--4h5p4--|
|-------------|----------------|-3---------2--|-(2)------------|
|-10----10----|-10-----10--10--|--------------|----------------|
|-------------|----------------|--------------|----------------|


    A5
   4/4
    Gtr I
    H      H          H     Q  Q    H      H          H     Q  Q
||------------------|-------------|-----------------|--------------|
||o-----------------|-------------|-----------------|--------------|
||------------------|-------------|-----------------|--------------|
||------------------|-------------|-----------------|--------------|
||o-7------7--------|-7-----7--7--|-7------7--------|-7-----7--7---|
||--5------5--------|-5-----5--5--|-5------5--------|-5-----5--5---|
|
|   Q  Q   E  E  Q    Q  Q  Q  Q    Q  Q   E  E  Q    Q  Q  H
||------------------|-------------|-----------------|--------------|
||o-----------------|-------------|-----------------|--------------|
||-----9--10h12p10--|-9--7--9-----|----9--10h12p10--|-9--7--9------|
||--7---------------|----------9--|-7---------------|--------------|
||o-----------------|-------------|-----------------|--------------|
||------------------|-------------|-----------------|--------------|


  G5                              F5        E5
  H      H          H     Q  Q    H.        Q    +W              4x
|-----------------|-------------|--------------|-----------------||
|-----------------|-------------|--------------|----------------o||
|-----------------|-------------|--------------|-----------------||
|-----------------|-------------|--------------|-----------------||
|-5------5--------|-5-----5--5--|-3---------2--|-(2)------------o||
|-3------3--------|-3-----3--3--|-1---------0--|-(0)-------------||
|
|                                 Gtr II
| Q  Q   E  E  Q    Q  Q  Q  Q    Q   Q  Q  Q    +Q   Q  E E Q   4x
|-----------------|-------------|--------------|-----------------||
|-----------------|-------------|--------------|----------------o||
|----9--10h12p10--|-9--7--9-----|-----5--7-----|------5--4h5p4---||
|-7---------------|----------9--|-3---------2--|-(2)-------------||
|-----------------|-------------|--------------|----------------o||
|-----------------|-------------|--------------|-----------------||


 Bridge
  A5
  PM----------------------------------------------------------------------|
  E E E E E E E E   E E E E E E E S S   E E E E E E E E   E E E E E E E S S
|-----------------|-------------------|-----------------|---------------------|
|-----------------|-------------------|-----------------|---------------------|
|-----------------|-------------------|-----------------|---------------------|
|-----------------|-------------------|-----------------|---------------------|
|-7-7-7-7-7-7-7-7-|-7-7-7-7-7-7-7-7-7-|-7-7-7-7-7-7-7-7-|-7-7-7-7-7-7-7-7-7---|
|-5-5-5-5-5-5-5-5-|-5-5-5-5-5-5-5-5-5-|-5-5-5-5-5-5-5-5-|-5-5-5-5-5-5-5-5-5---|


  A5
  PM--------------------------------------------------------------------|
  E E E E E E E E   E E E E E E E S S   E E E E E E E E   E E E E E E E E
|-----------------|-------------------|-----------------|-----------------|
|-----------------|-------------------|-----------------|-----------------|
|-----------------|-------------------|-----------------|-----------------|
|-----------------|-------------------|-----------------|-----------------|
|-7-7-7-7-7-7-7-7-|-7-7-7-7-7-7-7-7-7-|-7-7-7-7-7-7-7-7-|-7-7-7-7-7-7-7-7-|
|-5-5-5-5-5-5-5-5-|-5-5-5-5-5-5-5-5-5-|-5-5-5-5-5-5-5-5-|-5-5-5-5-5-5-5-5-|
|
|                                                         Gtr II
| W                 W                   W                 E E E E E E E E
|-----------------|-------------------|-----------------|-----------------|
|-----------------|-------------------|-----------------|-----------------|
|-----------------|-------------------|-----------------|-9-9-9-9-9-9-9-9-|
|-----------------|-------------------|-----------------|-----------------|
|-----------------|-------------------|-----------------|-----------------|
|-----------------|-------------------|-----------------|-----------------|


   Verse
    A5
    PM------------------------------------
    E  E E E  E E E  E   E E E E E E E E
||---------------------|-----------------|
||o--------------------|-----------------|
||---------------------|-----------------|
||---------------------|-----------------|
||o-7--7-7-7--7-7-7--7-|-7-7-7-7-7-7-7-7-|
||--5--5-5-5--5-5-5--5-|-5-5-5-5-5-5-5-5-|
|
|   TP TP  TP TP  TP TP  TPTP  TPTP  TPTP
|   E  Q   E  Q   E  E   E Q   E Q   E E
||---------------------|-----------------|
||o--------------------|-----------------|
||---------------------|-----------------|
||--7-10---7-10---7-10-|-7-9---7-9---7-9-|
||o--------------------|-----------------|
||---------------------|-----------------|


 ------------------------------------|
  E  E E E  E E E  E   E E E E E E E E
|--------------------|------------------|
|--------------------|------------------|
|--------------------|------------------|
|--------------------|------------------|
|-7--7-7-7--7-7-7--7-|-7-7-7-7-7-7-7-7--|
|-5--5-5-5--5-5-5--5-|-5-5-5-5-5-5-5-5--|
|
| TP TP  TP TP  TP TP  TPTP  TPTP  TPTP
| E  Q   E  Q   E  E   E Q   E Q   E E
|--------------------|------------------|
|--------------------|------------------|
|--------------------|------------------|
|-7-10---7-10---7-10-|-7-9---7-9---7-9--|
|--------------------|------------------|
|--------------------|------------------|


  F5
  PM---------------------------------------
  E  E E E  E E E  E   E  E E E  E E E  E
|--------------------|--------------------|
|--------------------|--------------------|
|--------------------|--------------------|
|--------------------|--------------------|
|-3--3-3-3--3-3-3--3-|-3--3-3-3--3-3-3--3-|
|-1--1-1-1--1-1-1--1-|-1--1-1-1--1-1-1--1-|
|
| TP TP  TP TP  TP TP  TP TP  TP TP  TP TP
| E  Q   E  Q   E  E   E  Q   E  Q   E  E
|--------------------|--------------------|
|--------------------|--------------------|
|--------------------|--------------------|
|---12-----12-----12-|---10-----10-----10-|
|-8------8------8----|-8------8------8----|
|--------------------|--------------------|


 --------------------------------------|
  E  E E E  E E E  E   E  E E E  E E E  E
|--------------------|---------------------||
|--------------------|--------------------o||
|--------------------|---------------------||
|--------------------|---------------------||
|-3--3-3-3--3-3-3--3-|-3--3-3-3--3-3-3--3-o||
|-1--1-1-1--1-1-1--1-|-1--1-1-1--1-1-1--1--||
|
| TP TP  TP TP  TP TP  TP TP  TP TP  TP TP
| E  Q   E  Q   E  E   E  Q   E  Q   E  E
|--------------------|---------------------||
|--------------------|--------------------o||
|--------------------|---------------------||
|---12-----12-----12-|---10-----10-----10--||
|-8------8------8----|-8------8------8----o||
|--------------------|---------------------||


   Verse
    A5
    PM--------------------------------------------------------------------|
    E E E E  E E E E   E E E E E E E E   E E E E  E E E E   E E E E E E E E
||-------------------|-----------------|------------------|------------------|
||o------------------|-----------------|------------------|------------------|
||-------------------|-----------------|------------------|------------------|
||-------------------|-----------------|------------------|------------------|
||o-7-7-7-7--7-7-7-7-|-7-7-7-7-7-7-7-7-|-7-7-7-7--7-7-7-7-|-7-7-7-7-7-7-7-7--|
||--5-5-5-5--5-5-5-5-|-5-5-5-5-5-5-5-5-|-5-5-5-5--5-5-5-5-|-5-5-5-5-5-5-5-5--|
|
|   TP       TP  TP    TP      TP  TP    TP       TP  TP    TP      TP  TP
|   H        Q   Q     H       Q   Q     H        Q   Q     H       Q   Q
||-------------------|-----------------|------------------|------------------|
||o------------------|-----------------|------------------|------------------|
||-------------------|-----------------|------------------|------------------|
||--7-------10---7---|-9---------------|-7-------10---7---|-9----------------|
||o------------------|---------0---7---|------------------|---------0---7----|
||-------------------|-----------------|------------------|------------------|


  G5
   PM------------------------------------
   E E E E  E E  E E    E E E E E E E E
|--------------------|------------------|
|--------------------|------------------|
|--------------------|------------------|
|--------------------|------------------|
|--5-5-5-5--5-5--5-5-|--5-5-5-5-5-5-5-5-|
|--3-3-3-3--3-3--3-3-|--3-3-3-3-3-3-3-3-|
|
|  TP       TP   TP     TP      TP
|  H        Q    Q      H       H
|--------------------|------------------|
|--------------------|------------------|
|--------------------|------------------|
|----------12--------|-10---------------|
|-10------------10---|------------------|
|--------------------|----------3-------|


  D5
 ----------------------------------|
  E E E E  E E E E   E E E E E E E  E  4x
|------------------|-------------------||
|------------------|------------------o||
|------------------|-------------------||
|-7-7-7-7--7-7-7-7-|-7-7-7-7-7-7-7--7--||
|-5-5-5-5--5-5-5-5-|-5-5-5-5-5-5-5--5-o||
|------------------|-------------------||
|
| TP       TP  TP    TP      TP  TP TP
| H        Q   Q     H       Q   E  E  4x
|------------------|-------------------||
|------------------|------------------o||
|-7-------10---7---|-9-------7---9-10--||
|------------------|-------------------||
|------------------|------------------o||
|------------------|-------------------||


   Interlude
    D5
     PM----------------------------------
     E E E E E E E E   E E E E  E E E E
||-------------------|------------------|
||o------------------|------------------|
||-------------------|------------------|
||---7-7-7-7-7-7-7-7-|-7-7-7-7--7-7-7-7-|
||o--5-5-5-5-5-5-5-5-|-5-5-5-5--5-5-5-5-|
||-------------------|------------------|
|
|    TP                TP       TP
|    W                 H        H
||-------------------|------------------|
||o------------------|------------------|
||--10---------------|-9----------------|
||-------------------|---------10-------|
||o------------------|------------------|
||-------------------|------------------|


  A5
 ------------------------------------|
  E  E E E E E  E E   E  E E E E E E E
|-------------------|-------------------|
|-------------------|-------------------|
|-------------------|-------------------|
|-------------------|-------------------|
|-7--7-7-7-7-7--7-7-|-7--7-7-7-7-7-7-7--|
|-5--5-5-5-5-5--5-5-|-5--5-5-5-5-5-5-5--|
|
| TP            TP    TP           TPTP
| H.            Q     H.           E E
|-------------------|-------------------|
|-------------------|-------------------|
|-------------------|-------------------|
|-7------------10---|-7------------5-7--|
|-------------------|-------------------|
|-------------------|-------------------|


  G5
  PM-------------------------------------
  E E E E E E E E    E  E E E E  E  E E
|-----------------|---------------------|
|-----------------|---------------------|
|-----------------|---------------------|
|-----------------|---------------------|
|-5-5-5-5-5-5-5-5-|--5--5-5-5-5--5--5-5-|
|-3-3-3-3-3-3-3-3-|--3--3-3-3-3--3--3-3-|
|
| TP                 TP     TP   TP
| W                  Q.     Q    Q.
|-----------------|---------------------|
|-----------------|---------------------|
|-----------------|---------------------|
|-8---------------|-12------8---12------|
|-----------------|---------------------|
|-----------------|---------------------|


  A5
 ---------------------------------------|
   E E E E E E  E E     E  E E E  E E E E  4x
|-------------------|----------------------||
|-------------------|---------------------o||
|-------------------|----------------------||
|-------------------|----------------------||
|--7-7-7-7-7-7--7-7-|---7--7-7-7--7-7-7-7-o||
|--5-5-5-5-5-5--5-5-|---5--5-5-5--5-5-5-5--||
|
|  TP      TP   TP      TP   TP   TP  TP
|  H       Q    Q      +Q    Q    Q   Q    4x
|-------------------|----------------------||
|-------------------|---------------------o||
|----------9--------|--------9--------9----||
|-10-----------10---|-(10)-------10--------||
|-------------------|---------------------o||
|-------------------|----------------------||


   Verse
    A5
    PM--------------------------------------------------------------------|
    E E E E  E E E E   E E E E E E E E   E E E E  E E E E   E E E E E E E E
||-------------------|-----------------|------------------|------------------|
||o------------------|-----------------|------------------|------------------|
||-------------------|-----------------|------------------|------------------|
||-------------------|-----------------|------------------|------------------|
||o-7-7-7-7--7-7-7-7-|-7-7-7-7-7-7-7-7-|-7-7-7-7--7-7-7-7-|-7-7-7-7-7-7-7-7--|
||--5-5-5-5--5-5-5-5-|-5-5-5-5-5-5-5-5-|-5-5-5-5--5-5-5-5-|-5-5-5-5-5-5-5-5--|
|
|   TP       TP  TP    TP      TP  TP    TP       TP  TP    TP      TP  TP
|   H        Q   Q     H       Q   Q     H        Q   Q     H       Q   Q
||-------------------|-----------------|------------------|------------------|
||o------------------|-----------------|------------------|------------------|
||-------------------|-----------------|------------------|------------------|
||--7-------10---7---|-9---------------|-7-------10---7---|-9----------------|
||o------------------|---------0---7---|------------------|---------0---7----|
||-------------------|-----------------|------------------|------------------|


  G5
   PM------------------------------------
   E E E E  E E  E E    E E E E E E E E
|--------------------|------------------|
|--------------------|------------------|
|--------------------|------------------|
|--------------------|------------------|
|--5-5-5-5--5-5--5-5-|--5-5-5-5-5-5-5-5-|
|--3-3-3-3--3-3--3-3-|--3-3-3-3-3-3-3-3-|
|
|  TP       TP   TP     TP      TP
|  H        Q    Q      H       H
|--------------------|------------------|
|--------------------|------------------|
|--------------------|------------------|
|----------12--------|-10---------------|
|-10------------10---|------------------|
|--------------------|----------3-------|


  D5
 ----------------------------------|
  E E E E  E E E E   E E E E E E E  E
|------------------|-------------------||
|------------------|------------------o||
|------------------|-------------------||
|-7-7-7-7--7-7-7-7-|-7-7-7-7-7-7-7--7--||
|-5-5-5-5--5-5-5-5-|-5-5-5-5-5-5-5--5-o||
|------------------|-------------------||
|
| TP       TP  TP    TP      TP  TP TP
| H        Q   Q     H       Q   E  E
|------------------|-------------------||
|------------------|------------------o||
|-7-------10---7---|-9-------7---9-10--||
|------------------|-------------------||
|------------------|------------------o||
|------------------|-------------------||


 Interlude
  A5
  PM----------------------------------------------------------------------|
  E E E E E E E E   E E E E E E E S S   E E E E E E E E   E E E E E E E S S
|-----------------|-------------------|-----------------|---------------------|
|-----------------|-------------------|-----------------|---------------------|
|-----------------|-------------------|-----------------|---------------------|
|-----------------|-------------------|-----------------|---------------------|
|-7-7-7-7-7-7-7-7-|-7-7-7-7-7-7-7-7-7-|-7-7-7-7-7-7-7-7-|-7-7-7-7-7-7-7-7-7---|
|-5-5-5-5-5-5-5-5-|-5-5-5-5-5-5-5-5-5-|-5-5-5-5-5-5-5-5-|-5-5-5-5-5-5-5-5-5---|


  A5
  PM--------------------------------------------------------------------|
  E E E E E E E E   E E E E E E E S S   E E E E E E E E   E E E E E E E E
|-----------------|-------------------|-----------------|-----------------|
|-----------------|-------------------|-----------------|-----------------|
|-----------------|-------------------|-----------------|-----------------|
|-----------------|-------------------|-----------------|-----------------|
|-7-7-7-7-7-7-7-7-|-7-7-7-7-7-7-7-7-7-|-7-7-7-7-7-7-7-7-|-7-7-7-7-7-7-7-7-|
|-5-5-5-5-5-5-5-5-|-5-5-5-5-5-5-5-5-5-|-5-5-5-5-5-5-5-5-|-5-5-5-5-5-5-5-5-|
|
|                                                         Gtr II
| W                 W                   W                 E E E E E E E E
|-----------------|-------------------|-----------------|-----------------|
|-----------------|-------------------|-----------------|-----------------|
|-----------------|-------------------|-----------------|-9-9-9-9-9-9-9-9-|
|-----------------|-------------------|-----------------|-----------------|
|-----------------|-------------------|-----------------|-----------------|
|-----------------|-------------------|-----------------|-----------------|


 Interlude
  A5
  W           +W             W           +W
|-----------|--------------|-----------|--------------|
|-----------|--------------|-----------|--------------|
|-----------|--------------|-----------|--------------|
|-----------|--------------|-----------|--------------|
|-7---------|-(7)----------|-7---------|-(7)----------|
|-5---------|-(5)----------|-5---------|-(5)----------|
|
| H    H       H     Q  Q    H    H       H     Q  Q
|-----------|--------------|-----------|--------------|
|-----------|--------------|-----------|--------------|
|-----------|--------------|-----------|--------------|
|-7----7----|--7-----7--9--|-7----7----|--7-----7--9--|
|-----------|--------------|-----------|--------------|
|-----------|--------------|-----------|--------------|


  G5                             F5
   W            +W               W           W
|-------------|----------------|-----------|------------------|
|-------------|----------------|-----------|------------------|
|-------------|----------------|-----------|------------------|
|-------------|----------------|-----------|------------------|
|--5----------|-(5)------------|-3---------|-3----------------|
|--3----------|-(3)------------|-1---------|-1----------------|
|
|  H     H       H      Q   Q    H    H      Q    Q   E  E Q
|-------------|----------------|-----------|------------------|
|-------------|----------------|-----------|------------------|
|-------------|----------------|-----------|------------------|
|-------------|----------------|-----------|----/12--12p10-9--|
|-10----10----|-10-----10--10--|-8----8----|-8----------------|
|-------------|----------------|-----------|------------------|


 Guitar Solo
  A5
   H     H           H         Q     Q     H      H            H     Q  Q
|-----------------|---------------------|-------------------|--------------|
|-----------------|---------------------|-------------------|--------------|
|-----------------|---------------------|-------------------|--------------|
|--------7--------|--7---------7-----7--|---------7---------|--7-----7--7--|
|--7--------------|---------------------|--7----------------|--------------|
|--5--------------|---------------------|--5----------------|--------------|
|
|  ~~                ~~                    ~~
|  H     E  Q   E    Q   E  E  E  E  Q     H     +E   Q   E    H     H
|-----------------|---------------------|-------------------|--------------|
|-----------------|---------------------|-------------------|--------------|
|----------17-----|-16------------------|------------17-----|-16-----------|
|-14----14-----14-|-----14h15-15p14-14--|-14----(14)-----14-|-------17-----|
|-----------------|---------------------|-------------------|--------------|
|-----------------|---------------------|-------------------|--------------|


  G5                              D5                  C5
   H    H        H      Q  Q       H       Q     Q     H         Q     Q
|------------|------------------|-------------------|---------------------|
|------------|------------------|-------------------|---------------------|
|------------|------------------|----------7-----7--|------------5-----5--|
|-------5----|---5------5--5----|--7----------------|--5------------------|
|--5---------|------------------|--5----------------|--3------------------|
|--3---------|------------------|-------------------|---------------------|
|
|  W            +H..          E    Q   Q   E  E  Q     E  E  Q   E  E  Q
|------------|------------------|-------------------|---------------------|
|------------|------------------|-------------------|---------------------|
|------------|------------------|-----12h=14-14-14--|-16-16-16--17-17-17--|
|-12---------|-(12)----------10h|=12----------------|---------------------|
|------------|------------------|-------------------|---------------------|
|------------|------------------|-------------------|---------------------|


  A5
    H         H           H        Q     Q
|----------------------|----------------------------|
|----------------------|----------------------------|
|----------------------|----------------------------|
|-------------7--------|--7--------7-----7----------|
|---7------------------|----------------------------|
|---5------------------|----------------------------|
|
|                                        |--3--|
|   Q   E  E  E  E  Q     E  Q   Q    E  S  S  S  E
|----------------------|----------------------------|
|----------------------|----------------------------|
|---------17----17-16--|-14----------17-16h17p16p14-|
|-\14--14----14--------|----14--14------------------|
|----------------------|----------------------------|
|----------------------|----------------------------|


   H         H           H      Q     Q
|---------------------|------------------------|
|---------------------|------------------------|
|---------------------|------------------------|
|------------7--------|--7------7-----7--------|
|--7------------------|------------------------|
|--5------------------|------------------------|
|
|  Q   E  E  E  E  Q     E  H      E  S  S  E
|---------------------|------------------------|
|-----------------15--|-17-17-----17-15h17p15--|
|--------17----17-----|------------------------|
|-14--14----14--------|------------------------|
|---------------------|------------------------|
|---------------------|------------------------|


  G5                           D5                C5
   H    H       H     Q   Q     H       Q   Q     H       Q     Q
|------------|---------------|-----------------|-----------------------|
|------------|---------------|-----------------|-----------------------|
|------------|---------------|----------7---7--|----------5-----5------|
|-------5----|--5-----5---5--|--7--------------|--5--------------------|
|--5---------|---------------|--5--------------|--3--------------------|
|--3---------|---------------|-----------------|-----------------------|
|
|  W            H     Q   Q     Q   Q   Q   Q     Q   Q   E  E  E  +E
|------------|---------------|-----------------|-----------------------|
|------------|---------------|-----------------|-15--15--17-17-17-(17)-|
|-16---------|-16----16--16--|-17--17--17--17--|-----------------------|
|------------|---------------|-----------------|-----------------------|
|------------|---------------|-----------------|-----------------------|
|------------|---------------|-----------------|-----------------------|


   Bridge
    A5
   4/4
    Gtr I
    H      H          H     Q  Q    H      H          H     Q  Q
||------------------|-------------|-----------------|--------------|
||o-----------------|-------------|-----------------|--------------|
||------------------|-------------|-----------------|--------------|
||------------------|-------------|-----------------|--------------|
||o-7------7--------|-7-----7--7--|-7------7--------|-7-----7--7---|
||--5------5--------|-5-----5--5--|-5------5--------|-5-----5--5---|
|
|   Q  Q   E  E  Q    Q  Q  Q  Q    Q  Q   E  E  Q    Q  Q  H
||------------------|-------------|-----------------|--------------|
||o-----------------|-------------|-----------------|--------------|
||-----9--10h12p10--|-9--7--9-----|----9--10h12p10--|-9--7--9------|
||--7---------------|----------9--|-7---------------|--------------|
||o-----------------|-------------|-----------------|--------------|
||------------------|-------------|-----------------|--------------|


  G5                              F5        E5
  H      H          H     Q  Q    H.        Q    +W              4x
|-----------------|-------------|--------------|-----------------||
|-----------------|-------------|--------------|----------------o||
|-----------------|-------------|--------------|-----------------||
|-----------------|-------------|--------------|-----------------||
|-5------5--------|-5-----5--5--|-3---------2--|-(2)------------o||
|-3------3--------|-3-----3--3--|-1---------0--|-(0)-------------||
|
|                                 Gtr II
| Q  Q   E  E  Q    Q  Q  Q  Q    Q   Q  Q  Q    +Q   Q  E E Q   4x
|-----------------|-------------|--------------|-----------------||
|-----------------|-------------|--------------|----------------o||
|----9--10h12p10--|-9--7--9-----|-----5--7-----|------5--4h5p4---||
|-7---------------|----------9--|-3---------2--|-(2)-------------||
|-----------------|-------------|--------------|----------------o||
|-----------------|-------------|--------------|-----------------||


   Interlude
    E5               C5                 D5
    H     Q     Q    H       Q     Q     H     Q   Q     H     Q    Q    4x
||-----------------|------------------|---------------|------------------||
||o----------------|------------------|---------------|-----------------o||
||-----------------|------------------|---------------|------------------||
||-----------------|-5-------5-----5--|--7-----7---7--|--7-----7----7----||
||o-2-----2-----2--|-3-------3-----3--|--5-----5---5--|--5-----5----5---o||
||--0-----0-----0--|------------------|---------------|------------------||
|
|   Q  Q  E  E  Q    Q   Q   E  E  Q     Q  Q  E E Q     Q  Q  E E  Q    4x
||-----------------|------------------|---------------|------------------||
||o----------------|------------------|---------------|-----------------o||
||-----------------|------------------|---------------|------------------||
||-----9--9h12p10--|----10--10h12p10--|-----9--9p7h9--|-----7--7h9-------||
||o----------------|------------------|---------------|------------10---o||
||--0--------------|-8----------------|-10------------|-10---------------||


    E5                         G5
    H    H      H     H        H    H      H     H       4x
||------------|--------------|-----------|---------------||
||o-----------|--------------|-----------|--------------o||
||------------|--------------|-----------|---------------||
||------------|--------------|-----------|---------------||
||o-2----2----|-2-----2------|-5----5----|-5-----5------o||
||--0----0----|-0-----0------|-3----3----|-3-----3-------||
|
|   TP   TP     TP TP TP  TP   TP   TP     TP TP TP TP
|   H    H      Q  Q  Q   Q    H    H      Q  Q  Q  Q    4x
||------------|--------------|-----------|---------------||
||o-----------|--------------|-----------|--------------o||
||------------|--------------|-----------|---------------||
||-------9----|--------------|-----------|---------------||
||o-7---------|----7--9--10--|------5----|----3--5--3---o||
||------------|--------------|-3---------|---------------||


   Outro
    E
    W             W            8x
||--------------|--------------||
||o-------------|-------------o||
||--------------|--------------||
||--------------|--------------||
||o-2-----------|-2-----------o||
||--0-----------|-0------------||
|
|   H    E E Q    H    E E Q   8x
||--------------|--------------||
||o-------------|-------------o||
||--------------|--------------||
||--2----2-5-3--|-2----2-5-3---||
||o-------------|-------------o||
||--------------|--------------||



Duration Legend
---------------
W - whole; H - half; Q - quarter; E - 8th; S - 16th; T - 32nd; X - 64th; a - acciaccatura
+ - note tied to previous; . - note dotted; .. - note double dotted
Uncapitalized letters represent notes that are staccato (1/2 duration)
Irregular groupings are notated above the duration line
Duration letters will always appear directly above the note/fret number it represents the
duration for.  Duration letters with no fret number below them represent rests.  Multi-
bar rests are notated in the form Wxn, where n is the number of bars to rest for.  Low
melody durations appear below the staff

Tablature Legend
----------------
 h   - hammer-on
 p   - pull-off
 b   - bend
 pb  - pre-bend
 r   - bend release (if no number after the r, then release immediately)
 /\  - slide into or out of (from/to "nowhere")
 s   - legato slide
 S   - shift slide
 - natural harmonic
[n]  - artificial harmonic
n(n) - tapped harmonic
 ~   - vibrato
 tr  - trill
 T   - tap
 TP  - trem. picking
 PM  - palm muting
\n/  - tremolo bar dip; n = amount to dip
 \n  - tremolo bar down
 n/  - tremolo bar up
/n\  - tremolo bar inverted dip
 =   - hold bend; also acts as connecting device for hammers/pulls
 <> - volume swell (louder/softer)
 x   - on rhythm slash represents muted slash
 o   - on rhythm slash represents single note slash

Misc Legend
-----------
 |  - bar
||  - double bar
||o - repeat start
o|| - repeat end
*|  - double bar (ending)
 :  - bar (freetime)
 $  - Segno
 &  - Coda
Tempo markers -  = BPM(8/16=s8/s16), where s8 = swing 8ths, s16 = swing 16ths

comments
We did not receive enough feedback on this tab! Please rate:
1 2 3 4 5
I want to post or [tab]
guest
You may want to rate the tab now too:
select rating
Please do not post tabs as comments. Select "correction" instead!