Oops, an error
Loading. Please wait.

Annihilation Of Hammerfest Tab

ver1
ver1

Whole song

Interactive

More versions @911Tabs.com
694 views 1 this week
no commentswrite comment
1 2 3 4 5
please rate
add to favorites launch autoscroll
font size
0
reset
Autoscroll
+/-
esc
set tempo
stop
Contributor
Difficulty
Tuning
novice
B F# B E G# C#
WARNING: You are trying to view
                                    content from Ultimate-Guitar.com
                                    in an unauthorized application,
                                    which is prohibited.

                                    Please use an official Ultimate
                                    Guitar Tabs application for iPhone,
                                    iPad or Android to access legitimate
                                    chords, guitar, bass, and drum tabs
                                    from Ultimate-Guitar.com database.

                                    Type "ultimate guitar tabs" in Apple
                                    App Store's or Android Market's
                                    search to find the application.
Duration Legend
---------------
W - whole
H - half
Q - quarter
E - 8th
S - 16th
. - note dotted
|-n-|  - n-tuplets


Tablature Legend
----------------
L - tied note
x - dead note
> - accentuded note
h - hammer on
p - pull off
T - tapping


Guitar one (guitar two below)

      W                   W                   W                 
B ||-------------------|-------------------|-------------------|
F#||-------------------|-------------------|-------------------|
D ||-------------------|-------------------|-------------------|
A ||--2----------------|--L----------------|--2----------------|
E ||--2----------------|--L----------------|--2----------------|
B ||--0----------------|--L----------------|--0----------------|


  W                   W                   W                   W                 
-------------------|-------------------|-------------------|-------------------|
-------------------|-------------------|-------------------|-------------------|
-------------------|-------------------|-------------------|-------------------|
--L----------------|--2----------------|--L----------------|--2----------------|
--L----------------|--2----------------|--L----------------|--2----------------|
--L----------------|--0----------------|--L----------------|--0----------------|


  W                   W                   W                 
-------------------|-------------------|-------------------|
-------------------|-------------------|-------------------|
-------------------|-------------------|-------------------|
--L----------------|--2----------------|--L----------------|
--L----------------|--2----------------|--L----------------|
--L----------------|--0----------------|--L----------------|


   <                                                         
   W                   W                   W                 
--------------------|-------------------|-------------------|
--17----------------|--L----------------|--L----------------|
--------------------|-------------------|-------------------|
--------------------|-------------------|-------------------|
--------------------|-------------------|-------------------|
--------------------|-------------------|-------------------|


  W                   W                   W                   W                 
-------------------|-------------------|-------------------|-------------------|
--L----------------|--L----------------|--L----------------|--L----------------|
-------------------|-------------------|-------------------|-------------------|
-------------------|-------------------|-------------------|-------------------|
-------------------|-------------------|-------------------|-------------------|
-------------------|-------------------|-------------------|-------------------|


  H.            E   E     Q.     Q.     S S E     Q.     Q.     Q     
-----------------------|-----------------------|---------------------|
--L--------------------|-----------------------|---------------------|
-----------------------|-----------------------|---------------------|
-----------------------|--2------2------2-2-2--|--2------2------2----|
---------------14s--2--|--2------2------2-2-2--|--2------2------2----|
---------------12s--0--|--0------0------0-0-0--|--0------0------0----|


  Q.     Q.     S S E     Q.     Q.     Q       Q.     Q.     S S E   
-----------------------|---------------------|-----------------------|
-----------------------|---------------------|-----------------------|
-----------------------|---------------------|-----------------------|
--2------2------2-2-2--|--2------2------2----|--2------2------2-2-2--|
--2------2------2-2-2--|--2------2------2----|--2------2------2-2-2--|
--0------0------0-0-0--|--0------0------0----|--0------0------0-0-0--|


  Q.     Q.     Q       Q.     Q.     S S E     Q.     Q.     Q     
---------------------|-----------------------|---------------------|
---------------------|-----------------------|---------------------|
---------------------|-----------------------|---------------------|
--2------2------2----|--2------2------2-2-2--|--2------2------2----|
--2------2------2----|--2------2------2-2-2--|--2------2------2----|
--0------0------0----|--0------0------0-0-0--|--0------0------0----|


  S S S S S S S S S S S S  S  S  S  S    S S S S S S S S S S S S S S S S  
--------------------------------------|----------------------------------|
--------------------------------------|----------------------------------|
--------------------------------------|----------------------------------|
--------------------------------------|--9-9-9-9-9-9-9-9-9-9-9-9-9-9-9-9-|
--9-9-9-9-9-9-9-9-9-9-9-9-12-12-12-12-|--7-7-7-7-7-7-7-7-7-7-7-7-7-7-7-7-|
--7-7-7-7-7-7-7-7-7-7-7-7-10-10-10-10-|----------------------------------|


  S S S S S S S S S S S S S S S S    S S S S S S S S S S S S S S S S  
----------------------------------|----------------------------------|
----------------------------------|----------------------------------|
----------------------------------|----------------------------------|
----------------------------------|----------------------------------|
--5-5-5-5-5-5-9-9-9-9-9-9-9-9-9-9-|--4-4-4-4-4-4-2-2-2-2-2-2-2-2-2-2-|
--3-3-3-3-3-3-7-7-7-7-7-7-7-7-7-7-|--2-2-2-2-2-2-0-0-0-0-0-0-0-0-0-0-|


  S S S S S S S S S S S S  S  S  S  S    S S S S S S S S S S S S S S S S  
--------------------------------------|----------------------------------|
--------------------------------------|----------------------------------|
--------------------------------------|----------------------------------|
--------------------------------------|--9-9-9-9-9-9-9-9-9-9-9-9-9-9-9-9-|
--9-9-9-9-9-9-9-9-9-9-9-9-12-12-12-12-|--7-7-7-7-7-7-7-7-7-7-7-7-7-7-7-7-|
--7-7-7-7-7-7-7-7-7-7-7-7-10-10-10-10-|----------------------------------|


  S S S S S S S S S S S S S S S S    S S S S S S S S S S S S S S S S  
----------------------------------|----------------------------------|
----------------------------------|----------------------------------|
----------------------------------|----------------------------------|
----------------------------------|----------------------------------|
--5-5-5-5-5-5-9-9-9-9-9-9-9-9-9-9-|--4-4-4-4-4-4-2-2-2-2-2-2-2-2-2-2-|
--3-3-3-3-3-3-7-7-7-7-7-7-7-7-7-7-|--2-2-2-2-2-2-0-0-0-0-0-0-0-0-0-0-|


  S S S S S S S S S S S S  S  S  S  S    S S S S S S S S S S S S S S S S  
--------------------------------------|----------------------------------|
--------------------------------------|----------------------------------|
--------------------------------------|----------------------------------|
--------------------------------------|--9-9-9-9-9-9-9-9-9-9-9-9-9-9-9-9-|
--9-9-9-9-9-9-9-9-9-9-9-9-12-12-12-12-|--7-7-7-7-7-7-7-7-7-7-7-7-7-7-7-7-|
--7-7-7-7-7-7-7-7-7-7-7-7-10-10-10-10-|----------------------------------|


  S S S S S S S S S S S S S S S S    S S S S S S S S S S S S S S S S  
----------------------------------|----------------------------------|
----------------------------------|----------------------------------|
----------------------------------|----------------------------------|
----------------------------------|----------------------------------|
--5-5-5-5-5-5-9-9-9-9-9-9-9-9-9-9-|--4-4-4-4-4-4-2-2-2-2-2-2-2-2-2-2-|
--3-3-3-3-3-3-7-7-7-7-7-7-7-7-7-7-|--2-2-2-2-2-2-0-0-0-0-0-0-0-0-0-0-|


  S S S S S S S S S S S S  S  S  S  S    S S S S S S S S S S S S S S S S  
--------------------------------------|----------------------------------|
--------------------------------------|----------------------------------|
--------------------------------------|----------------------------------|
--------------------------------------|--9-9-9-9-9-9-9-9-9-9-9-9-9-9-9-9-|
--9-9-9-9-9-9-9-9-9-9-9-9-12-12-12-12-|--7-7-7-7-7-7-7-7-7-7-7-7-7-7-7-7-|
--7-7-7-7-7-7-7-7-7-7-7-7-10-10-10-10-|----------------------------------|


  S S S S S S S S S S S S S S S S    S S S S S S S S S S S S S S S S  
----------------------------------|----------------------------------|
----------------------------------|----------------------------------|
----------------------------------|----------------------------------|
----------------------------------|----------------------------------|
--5-5-5-5-5-5-9-9-9-9-9-9-9-9-9-9-|--4-4-4-4-4-4-2-2-2-2-2-2-2-2-2-2-|
--3-3-3-3-3-3-7-7-7-7-7-7-7-7-7-7-|--2-2-2-2-2-2-0-0-0-0-0-0-0-0-0-0-|


  W                   W                   W                   W                 
-------------------|-------------------|-------------------|-------------------|
-------------------|-------------------|-------------------|-------------------|
-------------------|--9----------------|-------------------|-------------------|
--9----------------|--9----------------|--7----------------|--5----------------|
--9----------------|--7----------------|--7----------------|--5----------------|
--7----------------|--7----------------|--5----------------|--3----------------|


  W                   W                   W                   W                 
-------------------|-------------------|-------------------|-------------------|
-------------------|-------------------|-------------------|-------------------|
-------------------|--9----------------|-------------------|-------------------|
--9----------------|--9----------------|--7----------------|--5----------------|
--9----------------|--7----------------|--7----------------|--5----------------|
--7----------------|--7----------------|--5----------------|--3----------------|


  W                   W                   W                   W                 
-------------------|-------------------|-------------------|-------------------|
-------------------|-------------------|-------------------|-------------------|
-------------------|--9----------------|-------------------|-------------------|
--9----------------|--9----------------|--7----------------|--5----------------|
--9----------------|--7----------------|--7----------------|--5----------------|
--7----------------|--7----------------|--5----------------|--3----------------|


  W                   W                   W                   W                 
-------------------|-------------------|-------------------|-------------------|
-------------------|-------------------|-------------------|-------------------|
-------------------|--9----------------|-------------------|-------------------|
--9----------------|--9----------------|--7----------------|--5----------------|
--9----------------|--7----------------|--7----------------|--5----------------|
--7----------------|--7----------------|--5----------------|--3----------------|


  S S S S S S S S S S S S  S  S  S  S    S S S S S S S S S S S S S S S S  
--------------------------------------|----------------------------------|
--------------------------------------|----------------------------------|
--------------------------------------|----------------------------------|
--------------------------------------|--9-9-9-9-9-9-9-9-9-9-9-9-9-9-9-9-|
--9-9-9-9-9-9-9-9-9-9-9-9-12-12-12-12-|--7-7-7-7-7-7-7-7-7-7-7-7-7-7-7-7-|
--7-7-7-7-7-7-7-7-7-7-7-7-10-10-10-10-|----------------------------------|


  S S S S S S S S S S S S S S S S    S S S S S S S S S S S S S S S S  
----------------------------------|----------------------------------|
----------------------------------|----------------------------------|
----------------------------------|----------------------------------|
----------------------------------|----------------------------------|
--5-5-5-5-5-5-9-9-9-9-9-9-9-9-9-9-|--4-4-4-4-4-4-2-2-2-2-2-2-2-2-2-2-|
--3-3-3-3-3-3-7-7-7-7-7-7-7-7-7-7-|--2-2-2-2-2-2-0-0-0-0-0-0-0-0-0-0-|


  S S S S S S S S S S S S  S  S  S  S    S S S S S S S S S S S S S S S S  
--------------------------------------|----------------------------------|
--------------------------------------|----------------------------------|
--------------------------------------|----------------------------------|
--------------------------------------|--9-9-9-9-9-9-9-9-9-9-9-9-9-9-9-9-|
--9-9-9-9-9-9-9-9-9-9-9-9-12-12-12-12-|--7-7-7-7-7-7-7-7-7-7-7-7-7-7-7-7-|
--7-7-7-7-7-7-7-7-7-7-7-7-10-10-10-10-|----------------------------------|


  S S S S S S S S S S S S S S S S    S S S S S S S S S S S S S S S S  
----------------------------------|----------------------------------|
----------------------------------|----------------------------------|
----------------------------------|----------------------------------|
----------------------------------|----------------------------------|
--5-5-5-5-5-5-9-9-9-9-9-9-9-9-9-9-|--4-4-4-4-4-4-2-2-2-2-2-2-2-2-2-2-|
--3-3-3-3-3-3-7-7-7-7-7-7-7-7-7-7-|--2-2-2-2-2-2-0-0-0-0-0-0-0-0-0-0-|


  S S S S S S S S S S S S  S  S  S  S    S S S S S S S S S S S S S S S S  
--------------------------------------|----------------------------------|
--------------------------------------|----------------------------------|
--------------------------------------|----------------------------------|
--------------------------------------|--9-9-9-9-9-9-9-9-9-9-9-9-9-9-9-9-|
--9-9-9-9-9-9-9-9-9-9-9-9-12-12-12-12-|--7-7-7-7-7-7-7-7-7-7-7-7-7-7-7-7-|
--7-7-7-7-7-7-7-7-7-7-7-7-10-10-10-10-|----------------------------------|


  S S S S S S S S S S S S S S S S    S S S S S S S S S S S S S S S S  
----------------------------------|----------------------------------|
----------------------------------|----------------------------------|
----------------------------------|----------------------------------|
----------------------------------|----------------------------------|
--5-5-5-5-5-5-9-9-9-9-9-9-9-9-9-9-|--4-4-4-4-4-4-2-2-2-2-2-2-2-2-2-2-|
--3-3-3-3-3-3-7-7-7-7-7-7-7-7-7-7-|--2-2-2-2-2-2-0-0-0-0-0-0-0-0-0-0-|


  S S S S S S S S S S S S  S  S  S  S    S S S S S S S S S S S S S S S S  
--------------------------------------|----------------------------------|
--------------------------------------|----------------------------------|
--------------------------------------|----------------------------------|
--------------------------------------|--9-9-9-9-9-9-9-9-9-9-9-9-9-9-9-9-|
--9-9-9-9-9-9-9-9-9-9-9-9-12-12-12-12-|--7-7-7-7-7-7-7-7-7-7-7-7-7-7-7-7-|
--7-7-7-7-7-7-7-7-7-7-7-7-10-10-10-10-|----------------------------------|


  Q.     Q.     S S E     Q.     Q.     Q       Q.     Q.     S S E   
-----------------------|---------------------|-----------------------|
-----------------------|---------------------|-----------------------|
-----------------------|---------------------|-----------------------|
--2------2------2-2-2--|--2------2------2----|--2------2------2-2-2--|
--2------2------2-2-2--|--2------2------2----|--2------2------2-2-2--|
--0------0------0-0-0--|--0------0------0----|--0------0------0-0-0--|


  Q.     Q.     Q       Q.     Q.     S S E     Q.     Q.     Q     
---------------------|-----------------------|---------------------|
---------------------|-----------------------|---------------------|
---------------------|-----------------------|---------------------|
--2------2------2----|--2------2------2-2-2--|--2------2------2----|
--2------2------2----|--2------2------2-2-2--|--2------2------2----|
--0------0------0----|--0------0------0-0-0--|--0------0------0----|


  Q.     Q.     S S E     Q.     Q.     Q       Q.     Q.     S S E   
-----------------------|---------------------|-----------------------|
-----------------------|---------------------|-----------------------|
-----------------------|---------------------|-----------------------|
--2------2------2-2-2--|--2------2------2----|--2------2------2-2-2--|
--2------2------2-2-2--|--2------2------2----|--2------2------2-2-2--|
--0------0------0-0-0--|--0------0------0----|--0------0------0-0-0--|


  Q.     Q.     Q       Q.     Q.     S S E     Q.     Q.     Q     
---------------------|-----------------------|---------------------|
---------------------|-----------------------|---------------------|
---------------------|-----------------------|---------------------|
--2------2------2----|--2------2------2-2-2--|--2------2------2----|
--2------2------2----|--2------2------2-2-2--|--2------2------2----|
--0------0------0----|--0------0------0-0-0--|--0------0------0----|


  Q.     Q.     S S E     Q.     Q.     Q       Q.     Q.     S S E   
-----------------------|---------------------|-----------------------|
-----------------------|---------------------|-----------------------|
-----------------------|---------------------|-----------------------|
--2------2------2-2-2--|--2------2------2----|--2------2------2-2-2--|
--2------2------2-2-2--|--2------2------2----|--2------2------2-2-2--|
--0------0------0-0-0--|--0------0------0----|--0------0------0-0-0--|


  Q.     Q.     Q       Q.     Q.     S S E     Q.     Q.     Q     
---------------------|-----------------------|---------------------|
---------------------|-----------------------|---------------------|
---------------------|-----------------------|---------------------|
--2------2------2----|--2------2------2-2-2--|--2------2------2----|
--2------2------2----|--2------2------2-2-2--|--2------2------2----|
--0------0------0----|--0------0------0-0-0--|--0------0------0----|


  Q.     Q.     S S E     Q.     Q.     Q       Q.     Q.     S S E   
-----------------------|---------------------|-----------------------|
-----------------------|---------------------|-----------------------|
-----------------------|---------------------|-----------------------|
--2------2------2-2-2--|--2------2------2----|--2------2------2-2-2--|
--2------2------2-2-2--|--2------2------2----|--2------2------2-2-2--|
--0------0------0-0-0--|--0------0------0----|--0------0------0-0-0--|


  Q.     Q.     Q       Q.     Q.     S S E     Q.     Q.     Q     
---------------------|-----------------------|---------------------|
---------------------|-----------------------|---------------------|
---------------------|-----------------------|---------------------|
--2------2------2----|--2------2------2-2-2--|--2------2------2----|
--2------2------2----|--2------2------2-2-2--|--2------2------2----|
--0------0------0----|--0------0------0-0-0--|--0------0------0----|


  Q.     Q.     S S E     Q.     Q.     Q       W                 
-----------------------|---------------------|-------------------|
-----------------------|---------------------|-------------------|
-----------------------|---------------------|-------------------|
--2------2------2-2-2--|--2------2------2----|--9----------------|
--2------2------2-2-2--|--2------2------2----|--9----------------|
--0------0------0-0-0--|--0------0------0----|--7----------------|


  W                   W                   W                   W                 
-------------------|-------------------|-------------------|-------------------|
-------------------|-------------------|-------------------|-------------------|
--9----------------|-------------------|-------------------|-------------------|
--9----------------|--7----------------|--5----------------|--9----------------|
--7----------------|--7----------------|--5----------------|--9----------------|
--7----------------|--5----------------|--3----------------|--7----------------|


  W                   W                   W                   W                 
-------------------|-------------------|-------------------|-------------------|
-------------------|-------------------|-------------------|-------------------|
--9----------------|-------------------|-------------------|-------------------|
--9----------------|--7----------------|--5----------------|--9----------------|
--7----------------|--7----------------|--5----------------|--9----------------|
--7----------------|--5----------------|--3----------------|--7----------------|


  W                   W                   W                   W                 
-------------------|-------------------|-------------------|-------------------|
-------------------|-------------------|-------------------|-------------------|
--9----------------|-------------------|-------------------|-------------------|
--9----------------|--7----------------|--5----------------|--9----------------|
--7----------------|--7----------------|--5----------------|--9----------------|
--7----------------|--5----------------|--3----------------|--7----------------|


  W                   W                   W                 
-------------------|-------------------|-------------------|
-------------------|-------------------|-------------------|
--9----------------|-------------------|-------------------|
--9----------------|--7----------------|--5----------------|
--7----------------|--7----------------|--5----------------|
--7----------------|--5----------------|--3----------------|


  E  E  E  E  E  E  E  E     E  E  E  E  E  E  E  E   
--------------------------|--------------------------|
--------------------------|--------------------------|
--------------------------|--------------------------|
--------------------------|--------------------------|
--9--9--9--9--9--9--9--9--|--2--2--2--2--2--2--2--2--|
--7--7--7--7--7--7--7--7--|--0--0--0--0--0--0--0--0--|


  E  E  E  E  E  E  E  E     E  E  E  E  E  E  E  E   
--------------------------|--------------------------|
--------------------------|--------------------------|
--------------------------|--------------------------|
--------------------------|--------------------------|
--7--7--7--7--7--7--7--7--|--5--5--5--5--5--5--5--5--|
--5--5--5--5--5--5--5--5--|--3--3--3--3--3--3--3--3--|


  E  E  E  E  E  E  E  E     E  E  E  E  E  E  E  E   
--------------------------|--------------------------|
--------------------------|--------------------------|
--------------------------|--------------------------|
--------------------------|--------------------------|
--9--9--9--9--9--9--9--9--|--2--2--2--2--2--2--2--2--|
--7--7--7--7--7--7--7--7--|--0--0--0--0--0--0--0--0--|


  E  E  E  E  E  E  E  E     E  E  E  E  E  E  E  E   
--------------------------|--------------------------|
--------------------------|--------------------------|
--------------------------|--------------------------|
--------------------------|--------------------------|
--7--7--7--7--7--7--7--7--|--5--5--5--5--5--5--5--5--|
--5--5--5--5--5--5--5--5--|--3--3--3--3--3--3--3--3--|


  E  E  E  E  E  E  E  E     E  E  E  E  E  E  E  E   
--------------------------|--------------------------|
--------------------------|--------------------------|
--------------------------|--------------------------|
--------------------------|--------------------------|
--9--9--9--9--9--9--9--9--|--2--2--2--2--2--2--2--2--|
--7--7--7--7--7--7--7--7--|--0--0--0--0--0--0--0--0--|


  E  E  E  E  E  E  E  E     E  E  E  E  E  E  E  E   
--------------------------|--------------------------|
--------------------------|--------------------------|
--------------------------|--------------------------|
--------------------------|--------------------------|
--7--7--7--7--7--7--7--7--|--5--5--5--5--5--5--5--5--|
--5--5--5--5--5--5--5--5--|--3--3--3--3--3--3--3--3--|


  E  E  E  E  E  E  E  E     E  E  E  E  E  E  E  E   
--------------------------|--------------------------|
--------------------------|--------------------------|
--------------------------|--------------------------|
--------------------------|--------------------------|
--9--9--9--9--9--9--9--9--|--2--2--2--2--2--2--2--2--|
--7--7--7--7--7--7--7--7--|--0--0--0--0--0--0--0--0--|


  E  E  E  E  E  E  E  E     E  E  E  E  E  E  E  E     Q.     Q.     S S E   
--------------------------|--------------------------|-----------------------|
--------------------------|--------------------------|-----------------------|
--------------------------|--------------------------|-----------------------|
--------------------------|--------------------------|--2------2------2-2-2--|
--7--7--7--7--7--7--7--7--|--5--5--5--5--5--5--5--5--|--2------2------2-2-2--|
--5--5--5--5--5--5--5--5--|--3--3--3--3--3--3--3--3--|--0------0------0-0-0--|


  Q.     Q.     Q       Q.     Q.     S S E     Q.     Q.     Q     
---------------------|-----------------------|---------------------|
---------------------|-----------------------|---------------------|
---------------------|-----------------------|---------------------|
--2------2------2----|--2------2------2-2-2--|--2------2------2----|
--2------2------2----|--2------2------2-2-2--|--2------2------2----|
--0------0------0----|--0------0------0-0-0--|--0------0------0----|


  Q.     Q.     S S E     Q.     Q.     Q       Q.     Q.     S S E   
-----------------------|---------------------|-----------------------|
-----------------------|---------------------|-----------------------|
-----------------------|---------------------|-----------------------|
--2------2------2-2-2--|--2------2------2----|--2------2------2-2-2--|
--2------2------2-2-2--|--2------2------2----|--2------2------2-2-2--|
--0------0------0-0-0--|--0------0------0----|--0------0------0-0-0--|


  Q.     Q.     Q       Q.     Q.     S S E     Q.     Q.     Q     
---------------------|-----------------------|---------------------|
---------------------|-----------------------|---------------------|
---------------------|-----------------------|---------------------|
--2------2------2----|--2------2------2-2-2--|--2------2------2----|
--2------2------2----|--2------2------2-2-2--|--2------2------2----|
--0------0------0----|--0------0------0-0-0--|--0------0------0----|


  Q.     Q.     S S E     Q.     Q.     Q       Q.     Q.     S S E   
-----------------------|---------------------|-----------------------|
-----------------------|---------------------|-----------------------|
-----------------------|---------------------|-----------------------|
--2------2------2-2-2--|--2------2------2----|--2------2------2-2-2--|
--2------2------2-2-2--|--2------2------2----|--2------2------2-2-2--|
--0------0------0-0-0--|--0------0------0----|--0------0------0-0-0--|


  Q.     Q.     Q       Q.     Q.     S S E     Q.     Q.     Q     
---------------------|-----------------------|---------------------|
---------------------|-----------------------|---------------------|
---------------------|-----------------------|---------------------|
--2------2------2----|--2------2------2-2-2--|--2------2------2----|
--2------2------2----|--2------2------2-2-2--|--2------2------2----|
--0------0------0----|--0------0------0-0-0--|--0------0------0----|


  PM     PM     PM                                                         
  Q.     Q.     Q       Q    E  E  E  E  E  E     E  E  E  E  E  E  E  E   
---------------------|-------------------------|--------------------------|
---------------------|-------------------------|--------------------------|
---------------------|-------------------------|--------------------------|
--2------2------2----|--L----------------------|--------------------------|
--2------2------2----|--L----2--2--2--2--2--2--|--2--2--2--2--2--2--2--2--|
--0------0------0----|--L----0--0--0--0--0--0--|--0--0--0--0--0--0--0--0--|


                             PM     PM     PM                              
  E  E  E  E  E  E  E  E     Q.     Q.     Q       Q    E  E  E  E  E  E   
--------------------------|---------------------|-------------------------|
--------------------------|---------------------|-------------------------|
--------------------------|---------------------|-------------------------|
--------------------------|--2------2------2----|--L----------------------|
--2--2--2--2--2--2--2--2--|--2------2------2----|--L----2--2--2--2--2--2--|
--0--0--0--0--0--0--0--0--|--0------0------0----|--L----0--0--0--0--0--0--|


                                                        PM     PM     PM    
  E  E  E  E  E  E  E  E     E  E  E  E  E  E  E  E     Q.     Q.     Q     
--------------------------|--------------------------|---------------------|
--------------------------|--------------------------|---------------------|
--------------------------|--------------------------|---------------------|
--------------------------|--------------------------|--2------2------2----|
--2--2--2--2--2--2--2--2--|--2--2--2--2--2--2--2--2--|--2------2------2----|
--0--0--0--0--0--0--0--0--|--0--0--0--0--0--0--0--0--|--0------0------0----|


  Q    E  E  E  E  E    
----------------------||
----------------------||
----------------------||
--L----------------2--||
--L----2--2--2--2--2--||
--L----0--0--0--0--0--||


------------------------------------------------------------------

Guitar two

                                      PM        PM        PM PM PM  
                                      E  S S E  E  S S E  S  S  E   
B ||-------|-------|-------|-------|-------------------------------|
F#||-------|-------|-------|-------|-------------------------------|
D ||-------|-------|-------|-------|-------------------------------|
A ||-------|-------|-------|-------|-----5-5-5-----4-4-4-----------|
E ||-------|-------|-------|-------|-----7-7-7-----5-5-5-----------|
B ||-------|-------|-------|-------|--0---------0---------0--0--0--|


  PM        PM                  PM        PM        PM PM PM  
  E  S S E  E  S S E  S S E     E  S S E  E  S S E  S  S  E   
-----------------------------|-------------------------------|
-----------------------------|-------------------------------|
-----------------------------|-------------------------------|
-----7-7-7-----7-7-7--5-5-5--|-----5-5-5-----4-4-4-----------|
-----8-8-8-----8-8-8--7-7-7--|-----7-7-7-----5-5-5-----------|
--0---------0----------------|--0---------0---------0--0--0--|


  PM        PM                  PM        PM        PM PM PM  
  E  S S E  E  S S E  S S E     E  S S E  E  S S E  S  S  E   
-----------------------------|-------------------------------|
-----------------------------|-------------------------------|
-----------------------------|-------------------------------|
-----7-7-7-----7-7-7--5-5-5--|-----5-5-5-----4-4-4-----------|
-----8-8-8-----8-8-8--7-7-7--|-----7-7-7-----5-5-5-----------|
--0---------0----------------|--0---------0---------0--0--0--|


  PM        PM                  PM        PM        PM PM PM  
  E  S S E  E  S S E  S S E     E  S S E  E  S S E  S  S  E   
-----------------------------|-------------------------------|
-----------------------------|-------------------------------|
-----------------------------|-------------------------------|
-----7-7-7-----7-7-7--5-5-5--|-----5-5-5-----4-4-4-----------|
-----8-8-8-----8-8-8--7-7-7--|-----7-7-7-----5-5-5-----------|
--0---------0----------------|--0---------0---------0--0--0--|


  PM        PM                  PM        PM        PM PM PM  
  E  S S E  E  S S E  S S E     E  S S E  E  S S E  S  S  E   
-----------------------------|-------------------------------|
-----------------------------|-------------------------------|
-----------------------------|-------------------------------|
-----7-7-7-----7-7-7--5-5-5--|-----5-5-5-----4-4-4-----------|
-----8-8-8-----8-8-8--7-7-7--|-----7-7-7-----5-5-5-----------|
--0---------0----------------|--0---------0---------0--0--0--|


  PM        PM                  PM        PM        PM PM PM  
  E  S S E  E  S S E  S S E     E  S S E  E  S S E  S  S  E   
-----------------------------|-------------------------------|
-----------------------------|-------------------------------|
-----------------------------|-------------------------------|
-----7-7-7-----7-7-7--5-5-5--|-----5-5-5-----4-4-4-----------|
-----8-8-8-----8-8-8--7-7-7--|-----7-7-7-----5-5-5-----------|
--0---------0----------------|--0---------0---------0--0--0--|


  PM        PM                  PM        PM        PM PM PM  
  E  S S E  E  S S E  S S E     E  S S E  E  S S E  S  S  E   
-----------------------------|-------------------------------|
-----------------------------|-------------------------------|
-----------------------------|-------------------------------|
-----7-7-7-----7-7-7--5-5-5--|-----5-5-5-----4-4-4-----------|
-----8-8-8-----8-8-8--7-7-7--|-----7-7-7-----5-5-5-----------|
--0---------0----------------|--0---------0---------0--0--0--|


  PM        PM                  PM        PM        PM PM PM  
  E  S S E  E  S S E  S S E     E  S S E  E  S S E  S  S  E   
-----------------------------|-------------------------------|
-----------------------------|-------------------------------|
-----------------------------|-------------------------------|
-----7-7-7-----7-7-7--5-5-5--|-----5-5-5-----4-4-4-----------|
-----8-8-8-----8-8-8--7-7-7--|-----7-7-7-----5-5-5-----------|
--0---------0----------------|--0---------0---------0--0--0--|


  PM        PM                  PM        PM        PM PM PM  
  E  S S E  E  S S E  S S E     E  S S E  E  S S E  S  S  E   
-----------------------------|-------------------------------|
-----------------------------|-------------------------------|
-----------------------------|-------------------------------|
-----7-7-7-----7-7-7--5-5-5--|-----5-5-5-----4-4-4-----------|
-----8-8-8-----8-8-8--7-7-7--|-----7-7-7-----5-5-5-----------|
--0---------0----------------|--0---------0---------0--0--0--|


  PM        PM                  PM        PM        PM PM PM  
  E  S S E  E  S S E  S S E     E  S S E  E  S S E  S  S  E   
-----------------------------|-------------------------------|
-----------------------------|-------------------------------|
-----------------------------|-------------------------------|
-----7-7-7-----7-7-7--5-5-5--|-----5-5-5-----4-4-4-----------|
-----8-8-8-----8-8-8--7-7-7--|-----7-7-7-----5-5-5-----------|
--0---------0----------------|--0---------0---------0--0--0--|


  PM        PM                  PM        PM        PM PM PM  
  E  S S E  E  S S E  S S E     E  S S E  E  S S E  S  S  E   
-----------------------------|-------------------------------|
-----------------------------|-------------------------------|
-----------------------------|-------------------------------|
-----7-7-7-----7-7-7--5-5-5--|-----5-5-5-----4-4-4-----------|
-----8-8-8-----8-8-8--7-7-7--|-----7-7-7-----5-5-5-----------|
--0---------0----------------|--0---------0---------0--0--0--|


  PM        PM                                                       
  E  S S E  E  S S E  S S E     S S S S S S S S S S S S  S  S  S  S  
-----------------------------|--------------------------------------|
-----------------------------|--------------------------------------|
-----------------------------|--------------------------------------|
-----7-7-7-----7-7-7--5-5-5--|--9-9-9-9-9-9-9-9-9-9-9-9-12-12-12-12-|
-----8-8-8-----8-8-8--7-7-7--|--------------------------------------|
--0---------0----------------|--------------------------------------|


   S  S  S  S  S  S  S  S  S  S  S  S  S  S  S  S  
--------------------------------------------------|
--------------------------------------------------|
--------------------------------------------------|
--14-14-14-14-14-14-14-14-14-14-14-14-14-14-14-14-|
--------------------------------------------------|
--------------------------------------------------|


  S S S S S S S S S S S S S S S S    S S S S S S S S S S S S S S S S  
----------------------------------|----------------------------------|
----------------------------------|----------------------------------|
----------------------------------|----------------------------------|
--5-5-5-5-5-5-9-9-9-9-9-9-9-9-9-9-|--4-4-4-4-4-4-2-2-2-2-2-2-2-2-2-2-|
----------------------------------|----------------------------------|
----------------------------------|----------------------------------|


  S S S S S S S S S S S S  S  S  S  S  
--------------------------------------|
--------------------------------------|
--------------------------------------|
--9-9-9-9-9-9-9-9-9-9-9-9-12-12-12-12-|
--------------------------------------|
--------------------------------------|


   S  S  S  S  S  S  S  S  S  S  S  S  S  S  S  S  
--------------------------------------------------|
--------------------------------------------------|
--------------------------------------------------|
--14-14-14-14-14-14-14-14-14-14-14-14-14-14-14-14-|
--------------------------------------------------|
--------------------------------------------------|


  S S S S S S S S S S S S S S S S    S S S S S S S S S S S S S S S S  
----------------------------------|----------------------------------|
----------------------------------|----------------------------------|
----------------------------------|----------------------------------|
--5-5-5-5-5-5-9-9-9-9-9-9-9-9-9-9-|--4-4-4-4-4-4-2-2-2-2-2-2-2-2-2-2-|
----------------------------------|----------------------------------|
----------------------------------|----------------------------------|


  S S S S S S S S S S S S  S  S  S  S  
--------------------------------------|
--------------------------------------|
--------------------------------------|
--9-9-9-9-9-9-9-9-9-9-9-9-12-12-12-12-|
--------------------------------------|
--------------------------------------|


   S  S  S  S  S  S  S  S  S  S  S  S  S  S  S  S  
--------------------------------------------------|
--------------------------------------------------|
--------------------------------------------------|
--14-14-14-14-14-14-14-14-14-14-14-14-14-14-14-14-|
--------------------------------------------------|
--------------------------------------------------|


  S S S S S S S S S S S S S S S S    S S S S S S S S S S S S S S S S  
----------------------------------|----------------------------------|
----------------------------------|----------------------------------|
----------------------------------|----------------------------------|
--5-5-5-5-5-5-9-9-9-9-9-9-9-9-9-9-|--4-4-4-4-4-4-2-2-2-2-2-2-2-2-2-2-|
----------------------------------|----------------------------------|
----------------------------------|----------------------------------|


  S S S S S S S S S S S S  S  S  S  S  
--------------------------------------|
--------------------------------------|
--------------------------------------|
--9-9-9-9-9-9-9-9-9-9-9-9-12-12-12-12-|
--------------------------------------|
--------------------------------------|


   S  S  S  S  S  S  S  S  S  S  S  S  S  S  S  S  
--------------------------------------------------|
--------------------------------------------------|
--------------------------------------------------|
--14-14-14-14-14-14-14-14-14-14-14-14-14-14-14-14-|
--------------------------------------------------|
--------------------------------------------------|


  S S S S S S S S S S S S S S S S    S S S S S S S S S S S S S S S S  
----------------------------------|----------------------------------|
----------------------------------|----------------------------------|
----------------------------------|----------------------------------|
--5-5-5-5-5-5-9-9-9-9-9-9-9-9-9-9-|--4-4-4-4-4-4-2-2-2-2-2-2-2-2-2-2-|
----------------------------------|----------------------------------|
----------------------------------|----------------------------------|


  E  E  E  E  E  E  E  E     E  E  E  E  E  E  E  E   
--------------------------|--------------------------|
--------------------------|--------------------------|
--------------------------|--------------------------|
-----9--9-----9--9-----9--|--------------------------|
--------------------------|-----7--7-----7--7-----7--|
--7--------7--------7-----|--7--------7--------7-----|


  E  E  E  E  E  E  E  E     E   E   E  E   E   E  E   E   
--------------------------|-------------------------------|
--------------------------|-------------------------------|
--------------------------|-------------------------------|
-----7--7-----7--7-----7--|-------------------------------|
-----------7--------7-----|--7--10--10--7--10--10--7--10--|
--5-----------------------|-------------------------------|


  E  E  E  E  E  E  E  E     E  E  E  E  E  E  E  E   
--------------------------|--------------------------|
--------------------------|--------------------------|
--------------------------|--------------------------|
-----9--9-----9--9-----9--|--------------------------|
--------------------------|-----7--7-----7--7-----7--|
--7--------7--------7-----|--7--------7--------7-----|


  E  E  E  E  E  E  E  E     E   E   E  E   E   E  E   E   
--------------------------|-------------------------------|
--------------------------|-------------------------------|
--------------------------|-------------------------------|
-----7--7-----7--7-----7--|-------------------------------|
-----------7--------7-----|--7--10--10--7--10--10--7--10--|
--5-----------------------|-------------------------------|


  E  E  E  E  E  E  E  E     E  E  E  E  E  E  E  E   
--------------------------|--------------------------|
--------------------------|--------------------------|
--------------------------|--------------------------|
-----9--9-----9--9-----9--|--------------------------|
--------------------------|-----7--7-----7--7-----7--|
--7--------7--------7-----|--7--------7--------7-----|


  E  E  E  E  E  E  E  E     E   E   E  E   E   E  E   E   
--------------------------|-------------------------------|
--------------------------|-------------------------------|
--------------------------|-------------------------------|
-----7--7-----7--7-----7--|-------------------------------|
-----------7--------7-----|--7--10--10--7--10--10--7--10--|
--5-----------------------|-------------------------------|


  E  E  E  E  E  E  E  E     E  E  E  E  E  E  E  E   
--------------------------|--------------------------|
--------------------------|--------------------------|
--------------------------|--------------------------|
-----9--9-----9--9-----9--|--------------------------|
--------------------------|-----7--7-----7--7-----7--|
--7--------7--------7-----|--7--------7--------7-----|


  E  E  E  E  E  E  E  E     E   E   E  E   E   E  E   E   
--------------------------|-------------------------------|
--------------------------|-------------------------------|
--------------------------|-------------------------------|
-----7--7-----7--7-----7--|-------------------------------|
-----------7--------7-----|--7--10--10--7--10--10--7--10--|
--5-----------------------|-------------------------------|


  S S S S S S S S S S S S  S  S  S  S  
--------------------------------------|
--------------------------------------|
--------------------------------------|
--9-9-9-9-9-9-9-9-9-9-9-9-12-12-12-12-|
--------------------------------------|
--------------------------------------|


   S  S  S  S  S  S  S  S  S  S  S  S  S  S  S  S  
--------------------------------------------------|
--------------------------------------------------|
--------------------------------------------------|
--14-14-14-14-14-14-14-14-14-14-14-14-14-14-14-14-|
--------------------------------------------------|
--------------------------------------------------|


  S S S S S S S S S S S S S S S S    S S S S S S S S S S S S S S S S  
----------------------------------|----------------------------------|
----------------------------------|----------------------------------|
----------------------------------|----------------------------------|
--5-5-5-5-5-5-9-9-9-9-9-9-9-9-9-9-|--4-4-4-4-4-4-2-2-2-2-2-2-2-2-2-2-|
----------------------------------|----------------------------------|
----------------------------------|----------------------------------|


  S S S S S S S S S S S S  S  S  S  S  
--------------------------------------|
--------------------------------------|
--------------------------------------|
--9-9-9-9-9-9-9-9-9-9-9-9-12-12-12-12-|
--------------------------------------|
--------------------------------------|


   S  S  S  S  S  S  S  S  S  S  S  S  S  S  S  S  
--------------------------------------------------|
--------------------------------------------------|
--------------------------------------------------|
--14-14-14-14-14-14-14-14-14-14-14-14-14-14-14-14-|
--------------------------------------------------|
--------------------------------------------------|


  S S S S S S S S S S S S S S S S    S S S S S S S S S S S S S S S S  
----------------------------------|----------------------------------|
----------------------------------|----------------------------------|
----------------------------------|----------------------------------|
--5-5-5-5-5-5-9-9-9-9-9-9-9-9-9-9-|--4-4-4-4-4-4-2-2-2-2-2-2-2-2-2-2-|
----------------------------------|----------------------------------|
----------------------------------|----------------------------------|


  S S S S S S S S S S S S  S  S  S  S  
--------------------------------------|
--------------------------------------|
--------------------------------------|
--9-9-9-9-9-9-9-9-9-9-9-9-12-12-12-12-|
--------------------------------------|
--------------------------------------|


   S  S  S  S  S  S  S  S  S  S  S  S  S  S  S  S  
--------------------------------------------------|
--------------------------------------------------|
--------------------------------------------------|
--14-14-14-14-14-14-14-14-14-14-14-14-14-14-14-14-|
--------------------------------------------------|
--------------------------------------------------|


  S S S S S S S S S S S S S S S S    S S S S S S S S S S S S S S S S  
----------------------------------|----------------------------------|
----------------------------------|----------------------------------|
----------------------------------|----------------------------------|
--5-5-5-5-5-5-9-9-9-9-9-9-9-9-9-9-|--4-4-4-4-4-4-2-2-2-2-2-2-2-2-2-2-|
----------------------------------|----------------------------------|
----------------------------------|----------------------------------|


  S S S S S S S S S S S S  S  S  S  S  
--------------------------------------|
--------------------------------------|
--------------------------------------|
--9-9-9-9-9-9-9-9-9-9-9-9-12-12-12-12-|
--------------------------------------|
--------------------------------------|


   S  S  S  S  S  S  S  S  S  S  S  S  S  S  S  S  
--------------------------------------------------|
--------------------------------------------------|
--------------------------------------------------|
--14-14-14-14-14-14-14-14-14-14-14-14-14-14-14-14-|
--------------------------------------------------|
--------------------------------------------------|


  PM        PM        PM PM PM    PM        PM                
  E  S S E  E  S S E  S  S  E     E  S S E  E  S S E  S S E   
-------------------------------|-----------------------------|
-------------------------------|-----------------------------|
-------------------------------|-----------------------------|
-----5-5-5-----4-4-4-----------|-----7-7-7-----7-7-7--5-5-5--|
-----7-7-7-----5-5-5-----------|-----8-8-8-----8-8-8--7-7-7--|
--0---------0---------0--0--0--|--0---------0----------------|


  PM        PM        PM PM PM    PM        PM                
  E  S S E  E  S S E  S  S  E     E  S S E  E  S S E  S S E   
-------------------------------|-----------------------------|
-------------------------------|-----------------------------|
-------------------------------|-----------------------------|
-----5-5-5-----4-4-4-----------|-----7-7-7-----7-7-7--5-5-5--|
-----7-7-7-----5-5-5-----------|-----8-8-8-----8-8-8--7-7-7--|
--0---------0---------0--0--0--|--0---------0----------------|


  PM        PM        PM PM PM    PM        PM                
  E  S S E  E  S S E  S  S  E     E  S S E  E  S S E  S S E   
-------------------------------|-----------------------------|
-------------------------------|-----------------------------|
-------------------------------|-----------------------------|
-----5-5-5-----4-4-4-----------|-----7-7-7-----7-7-7--5-5-5--|
-----7-7-7-----5-5-5-----------|-----8-8-8-----8-8-8--7-7-7--|
--0---------0---------0--0--0--|--0---------0----------------|


  PM        PM        PM PM PM    PM        PM                
  E  S S E  E  S S E  S  S  E     E  S S E  E  S S E  S S E   
-------------------------------|-----------------------------|
-------------------------------|-----------------------------|
-------------------------------|-----------------------------|
-----5-5-5-----4-4-4-----------|-----7-7-7-----7-7-7--5-5-5--|
-----7-7-7-----5-5-5-----------|-----8-8-8-----8-8-8--7-7-7--|
--0---------0---------0--0--0--|--0---------0----------------|


  PM        PM        PM PM PM    PM        PM                
  E  S S E  E  S S E  S  S  E     E  S S E  E  S S E  S S E   
-------------------------------|-----------------------------|
-------------------------------|-----------------------------|
-------------------------------|-----------------------------|
-----5-5-5-----4-4-4-----------|-----7-7-7-----7-7-7--5-5-5--|
-----7-7-7-----5-5-5-----------|-----8-8-8-----8-8-8--7-7-7--|
--0---------0---------0--0--0--|--0---------0----------------|


  PM        PM        PM PM PM    PM        PM                
  E  S S E  E  S S E  S  S  E     E  S S E  E  S S E  S S E   
-------------------------------|-----------------------------|
-------------------------------|-----------------------------|
-------------------------------|-----------------------------|
-----5-5-5-----4-4-4-----------|-----7-7-7-----7-7-7--5-5-5--|
-----7-7-7-----5-5-5-----------|-----8-8-8-----8-8-8--7-7-7--|
--0---------0---------0--0--0--|--0---------0----------------|


  PM        PM        PM PM PM    PM        PM                
  E  S S E  E  S S E  S  S  E     E  S S E  E  S S E  S S E   
-------------------------------|-----------------------------|
-------------------------------|-----------------------------|
-------------------------------|-----------------------------|
-----5-5-5-----4-4-4-----------|-----7-7-7-----7-7-7--5-5-5--|
-----7-7-7-----5-5-5-----------|-----8-8-8-----8-8-8--7-7-7--|
--0---------0---------0--0--0--|--0---------0----------------|


  PM        PM        PM PM PM    PM        PM                
  E  S S E  E  S S E  S  S  E     E  S S E  E  S S E  S S E   
-------------------------------|-----------------------------|
-------------------------------|-----------------------------|
-------------------------------|-----------------------------|
-----5-5-5-----4-4-4-----------|-----7-7-7-----7-7-7--5-5-5--|
-----7-7-7-----5-5-5-----------|-----8-8-8-----8-8-8--7-7-7--|
--0---------0---------0--0--0--|--0---------0----------------|


  PM        PM        PM PM PM    PM        PM                
  E  S S E  E  S S E  S  S  E     E  S S E  E  S S E  S S E   
-------------------------------|-----------------------------|
-------------------------------|-----------------------------|
-------------------------------|-----------------------------|
-----5-5-5-----4-4-4-----------|-----7-7-7-----7-7-7--5-5-5--|
-----7-7-7-----5-5-5-----------|-----8-8-8-----8-8-8--7-7-7--|
--0---------0---------0--0--0--|--0---------0----------------|


  PM        PM        PM PM PM    PM        PM                
  E  S S E  E  S S E  S  S  E     E  S S E  E  S S E  S S E   
-------------------------------|-----------------------------|
-------------------------------|-----------------------------|
-------------------------------|-----------------------------|
-----5-5-5-----4-4-4-----------|-----7-7-7-----7-7-7--5-5-5--|
-----7-7-7-----5-5-5-----------|-----8-8-8-----8-8-8--7-7-7--|
--0---------0---------0--0--0--|--0---------0----------------|


  PM        PM        PM PM PM    PM        PM                
  E  S S E  E  S S E  S  S  E     E  S S E  E  S S E  S S E   
-------------------------------|-----------------------------|
-------------------------------|-----------------------------|
-------------------------------|-----------------------------|
-----5-5-5-----4-4-4-----------|-----7-7-7-----7-7-7--5-5-5--|
-----7-7-7-----5-5-5-----------|-----8-8-8-----8-8-8--7-7-7--|
--0---------0---------0--0--0--|--0---------0----------------|


  PM        PM        PM PM PM    PM        PM                
  E  S S E  E  S S E  S  S  E     E  S S E  E  S S E  S S E   
-------------------------------|-----------------------------|
-------------------------------|-----------------------------|
-------------------------------|-----------------------------|
-----5-5-5-----4-4-4-----------|-----7-7-7-----7-7-7--5-5-5--|
-----7-7-7-----5-5-5-----------|-----8-8-8-----8-8-8--7-7-7--|
--0---------0---------0--0--0--|--0---------0----------------|


  PM        PM        PM PM PM    PM        PM                
  E  S S E  E  S S E  S  S  E     E  S S E  E  S S E  S S E   
-------------------------------|-----------------------------|
-------------------------------|-----------------------------|
-------------------------------|-----------------------------|
-----5-5-5-----4-4-4-----------|-----7-7-7-----7-7-7--5-5-5--|
-----7-7-7-----5-5-5-----------|-----8-8-8-----8-8-8--7-7-7--|
--0---------0---------0--0--0--|--0---------0----------------|


  E  E  E  E  E  E  E  E     E  E  E  E  E  E  E  E   
--------------------------|--------------------------|
--------------------------|--------------------------|
--------------------------|--------------------------|
-----9--9-----9--9-----9--|--------------------------|
--------------------------|-----7--7-----7--7-----7--|
--7--------7--------7-----|--7--------7--------7-----|


  E  E  E  E  E  E  E  E     E   E   E  E   E   E  E   E   
--------------------------|-------------------------------|
--------------------------|-------------------------------|
--------------------------|-------------------------------|
-----7--7-----7--7-----7--|-------------------------------|
-----------7--------7-----|--7--10--10--7--10--10--7--10--|
--5-----------------------|-------------------------------|


  E  E  E  E  E  E  E  E     E  E  E  E  E  E  E  E   
--------------------------|--------------------------|
--------------------------|--------------------------|
--------------------------|--------------------------|
-----9--9-----9--9-----9--|--------------------------|
--------------------------|-----7--7-----7--7-----7--|
--7--------7--------7-----|--7--------7--------7-----|


  E  E  E  E  E  E  E  E     E   E   E  E   E   E  E   E   
--------------------------|-------------------------------|
--------------------------|-------------------------------|
--------------------------|-------------------------------|
-----7--7-----7--7-----7--|-------------------------------|
-----------7--------7-----|--7--10--10--7--10--10--7--10--|
--5-----------------------|-------------------------------|


  E  E  E  E  E  E  E  E     E  E  E  E  E  E  E  E   
--------------------------|--------------------------|
--------------------------|--------------------------|
--------------------------|--------------------------|
-----9--9-----9--9-----9--|--------------------------|
--------------------------|-----7--7-----7--7-----7--|
--7--------7--------7-----|--7--------7--------7-----|


  E  E  E  E  E  E  E  E     E   E   E  E   E   E  E   E   
--------------------------|-------------------------------|
--------------------------|-------------------------------|
--------------------------|-------------------------------|
-----7--7-----7--7-----7--|-------------------------------|
-----------7--------7-----|--7--10--10--7--10--10--7--10--|
--5-----------------------|-------------------------------|


  E  E  E  E  E  E  E  E     E  E  E  E  E  E  E  E   
--------------------------|--------------------------|
--------------------------|--------------------------|
--------------------------|--------------------------|
-----9--9-----9--9-----9--|--------------------------|
--------------------------|-----7--7-----7--7-----7--|
--7--------7--------7-----|--7--------7--------7-----|


  E  E  E  E  E  E  E  E     E   E   E  E   E   E  E   E   
--------------------------|-------------------------------|
--------------------------|-------------------------------|
--------------------------|-------------------------------|
-----7--7-----7--7-----7--|-------------------------------|
-----------7--------7-----|--7--10--10--7--10--10--7--10--|
--5-----------------------|-------------------------------|


  E  E  E  Q    Q    E     W                   E  E  E  Q    Q    E   
------------------------|-------------------|------------------------|
------------------------|-------------------|------------------------|
-----------5----4-------|-------------------|-----------7----5----4--|
--5--4--5------------5--|--7----------------|--5--2--5---------------|
------------------------|-------------------|------------------------|
------------------------|-------------------|------------------------|


  E.  S E  E  Q    E  E     E  E  E   E  E  E   Q     
-------------------------|---------------------------|
-------------------------|---------------------------|
--4---5-4--2--4----4--5--|--9-----9--12-----9--11----|
-------------------------|-----9---------9-----------|
-------------------------|---------------------------|
-------------------------|---------------------------|


  E  E  E   E  E  E   E  E     S  S  Q     S  S  Q     S  S  E   
----------------------------|-----------------------------------|
----------------------------|-----------------------------------|
--9-----9--12-----9--11--9--|--9-11-12----11-12-14----12-14-16--|
-----9---------9------------|-----------------------------------|
----------------------------|-----------------------------------|
----------------------------|-----------------------------------|


  E   Q     E   E   E   E    E        E   E   E   E   E   E   E   E   
----------------------------------|----------------------------------|
---------------------------(15)s--|--17------17--20------17--19------|
--L--14----12--14--12--11---------|------16----------16----------16--|
----------------------------------|----------------------------------|
----------------------------------|----------------------------------|
----------------------------------|----------------------------------|


   E   E   E   E   E   E   Q         S  S  Q     S  S  Q     S  S  E   
---------------------------------|--------------------------15-17-19--|
--17------17--20------17--19~----|--17-19-20----19-20-22--------------|
------16----------16-------------|------------------------------------|
---------------------------------|------------------------------------|
---------------------------------|------------------------------------|
---------------------------------|------------------------------------|


   Q     Q     Q     E   E   
---L----19----20----20--20--|
----------------------------|
----------------------------|
----------------------------|
----------------------------|
----------------------------|


   T          T          T          T          T          T          T          
   |---3---|  |---3---|  |---3---|  |---3---|  |---3---|  |---3---|  |---3---|  
   S   S   S  S   S   S  S   S   S  S   S   S  S   S   S  S   S   S  S   S   S  
--20p-15p-12-20p-15p-12-20p-15p-12-20p-15p-12-19p-15p-12-19p-15p-12-19p-15p-12-1
--------------------------------------------------------------------------------
--------------------------------------------------------------------------------
--------------------------------------------------------------------------------
--------------------------------------------------------------------------------
--------------------------------------------------------------------------------


   T          T          T          T          T          T          T          
   |---3---|  |---3---|  |---3---|  |---3---|  |---3---|  |---3---|  |---3---|  
   S   S   S  S   S   S  S   S   S  S   S   S  S   S   S  S   S   S  S   S   S  
--20p-15p-12-20p-15p-12-20p-15p-12-20p-15p-12-19p-15p-12-19p-15p-12-19p-15p-12-1
--------------------------------------------------------------------------------
--------------------------------------------------------------------------------
--------------------------------------------------------------------------------
--------------------------------------------------------------------------------
--------------------------------------------------------------------------------


   T          T          T          T          T          T          T          
   |---3---|  |---3---|  |---3---|  |---3---|  |---3---|  |---3---|  |---3---|  
   S   S   S  S   S   S  S   S   S  S   S   S  S   S   S  S   S   S  S   S   S  
--17p-15p-12-17p-15p-12-17p-15p-12-17p-15p-12-17p-15p-12-17p-15p-12-17p-15p-12-1
--------------------------------------------------------------------------------
--------------------------------------------------------------------------------
--------------------------------------------------------------------------------
--------------------------------------------------------------------------------
--------------------------------------------------------------------------------


                                 PM        PM        PM PM PM  
   Q      Q      Q      Q        E  S S E  E  S S E  S  S  E   
--12-----12-----14-----15-----|-------------------------------|
--15b----15b----17b----19b----|-------------------------------|
------------------------------|-------------------------------|
------------------------------|-----5-5-5-----4-4-4-----------|
------------------------------|-----7-7-7-----5-5-5-----------|
------------------------------|--0---------0---------0--0--0--|


  PM        PM                  PM        PM        PM PM PM  
  E  S S E  E  S S E  S S E     E  S S E  E  S S E  S  S  E   
-----------------------------|-------------------------------|
-----------------------------|-------------------------------|
-----------------------------|-------------------------------|
-----7-7-7-----7-7-7--5-5-5--|-----5-5-5-----4-4-4-----------|
-----8-8-8-----8-8-8--7-7-7--|-----7-7-7-----5-5-5-----------|
--0---------0----------------|--0---------0---------0--0--0--|


  PM        PM                  PM        PM        PM PM PM  
  E  S S E  E  S S E  S S E     E  S S E  E  S S E  S  S  E   
-----------------------------|-------------------------------|
-----------------------------|-------------------------------|
-----------------------------|-------------------------------|
-----7-7-7-----7-7-7--5-5-5--|-----5-5-5-----4-4-4-----------|
-----8-8-8-----8-8-8--7-7-7--|-----7-7-7-----5-5-5-----------|
--0---------0----------------|--0---------0---------0--0--0--|


  PM        PM                  PM        PM        PM PM PM  
  E  S S E  E  S S E  S S E     E  S S E  E  S S E  S  S  E   
-----------------------------|-------------------------------|
-----------------------------|-------------------------------|
-----------------------------|-------------------------------|
-----7-7-7-----7-7-7--5-5-5--|-----5-5-5-----4-4-4-----------|
-----8-8-8-----8-8-8--7-7-7--|-----7-7-7-----5-5-5-----------|
--0---------0----------------|--0---------0---------0--0--0--|


  PM        PM                  PM        PM        PM PM PM  
  E  S S E  E  S S E  S S E     E  S S E  E  S S E  S  S  E   
-----------------------------|-------------------------------|
-----------------------------|-------------------------------|
-----------------------------|-------------------------------|
-----7-7-7-----7-7-7--5-5-5--|-----5-5-5-----4-4-4-----------|
-----8-8-8-----8-8-8--7-7-7--|-----7-7-7-----5-5-5-----------|
--0---------0----------------|--0---------0---------0--0--0--|


  PM        PM                  PM        PM        PM PM PM  
  E  S S E  E  S S E  S S E     E  S S E  E  S S E  S  S  E   
-----------------------------|-------------------------------|
-----------------------------|-------------------------------|
-----------------------------|-------------------------------|
-----7-7-7-----7-7-7--5-5-5--|-----5-5-5-----4-4-4-----------|
-----8-8-8-----8-8-8--7-7-7--|-----7-7-7-----5-5-5-----------|
--0---------0----------------|--0---------0---------0--0--0--|


  PM        PM                  PM        PM        PM PM PM  
  E  S S E  E  S S E  S S E     E  S S E  E  S S E  S  S  E   
-----------------------------|-------------------------------|
-----------------------------|-------------------------------|
-----------------------------|-------------------------------|
-----7-7-7-----7-7-7--5-5-5--|-----5-5-5-----4-4-4-----------|
-----8-8-8-----8-8-8--7-7-7--|-----7-7-7-----5-5-5-----------|
--0---------0----------------|--0---------0---------0--0--0--|


  PM        PM                  PM        PM        PM PM PM  
  E  S S E  E  S S E  S S E     E  S S E  E  S S E  S  S  E   
-----------------------------|-------------------------------|
-----------------------------|-------------------------------|
-----------------------------|-------------------------------|
-----7-7-7-----7-7-7--5-5-5--|-----5-5-5-----4-4-4-----------|
-----8-8-8-----8-8-8--7-7-7--|-----7-7-7-----5-5-5-----------|
--0---------0----------------|--0---------0---------0--0--0--|


  PM        PM                  PM       PM       PM     
  E  S S E  E  S S E  S S E     E  E  E  E  E  E  E  E   
-----------------------------|--------------------------|
-----------------------------|--------------------------|
-----------------------------|--------------------------|
-----7-7-7-----7-7-7--5-5-5--|-----5--5-----4--4-----7--|
-----8-8-8-----8-8-8--7-7-7--|-----7--7-----5--5-----8--|
--0---------0----------------|--0--------0--------0-----|


        PM PM PM PM PM PM                                          
  E  E  E  E  E  E  E  E     W                   W                 
--------------------------|-------------------|-------------------|
--------------------------|-------------------|-------------------|
--------------------------|-------------------|-------------------|
--7-----------------------|-------------------|-------------------|
--8-----------------------|--2----------------|--L----------------|
-----0--0--0--0--0--0--0--|--0----------------|--L----------------|


  PM       PM       PM             PM PM PM PM PM PM                      
  E  E  E  E  E  E  E  E     E  E  E  E  E  E  E  E     W                 
--------------------------|--------------------------|-------------------|
--------------------------|--------------------------|-------------------|
--------------------------|--------------------------|-------------------|
-----5--5-----4--4-----7--|--7-----------------------|-------------------|
-----7--7-----5--5-----8--|--8-----------------------|--2----------------|
--0--------0--------0-----|-----0--0--0--0--0--0--0--|--0----------------|


                      PM       PM       PM             PM PM PM PM      
  W                   E  E  E  E  E  E  E  E     E  E  E  E  E  E  E    
-------------------|--------------------------|-----------------------||
-------------------|--------------------------|-----------------------||
-------------------|--------------------------|-----------------------||
-------------------|-----5--5-----4--4-----7--|--7-----------------2--||
--L----------------|-----7--7-----5--5-----8--|--8-----------------2--||
--L----------------|--0--------0--------0-----|-----0--0--0--0--0--0--||
comments
We did not receive enough feedback on this tab! Please rate:
print report bad tab
1 2 3 4 5
I want to post or [tab]
guest
You may want to rate the tab now too:
select rating
Please do not post tabs as comments. Select "correction" instead!