Oops, an error
Loading. Please wait.

Doom Over Dead Man Tab

ver1
ver1

Whole song

Interactive

More versions @911Tabs.com
5,080 views 1 this week
no commentswrite comment
1 2 3 4 5
excellent!
x 3
Autoscroll
+/-
esc
set tempo
stop
Contributor
Difficulty
Tuning
intermediate
A E A D F# B
Hey! There's an official Ultimate Guitar app which is ideal
for learning songs when you're away from computer. Get the app
WARNING: You are trying to view
                                    content from Ultimate-Guitar.com
                                    in an unauthorized application,
                                    which is prohibited.

                                    Please use an official Ultimate
                                    Guitar Tabs application for iPhone,
                                    iPad or Android to access legitimate
                                    chords, guitar, bass, and drum tabs
                                    from Ultimate-Guitar.com database.

                                    Type "ultimate guitar tabs" in Apple
                                    App Store's or Android Market's
                                    search to find the application.
 Doom Over Dead Man                           


                                                           Amon Amarth



Duration Legend
---------------
W - whole
H - half
Q - quarter
E - 8th
S - 16th
T - 32nd
X - 64th
. - note dotted
|-n-|  - n-tuplets


Tablature Legend
----------------
L - tied note
x - dead note
g - grace note
(n) - ghost note
> - accentuded note
NH - natural harmonic
AH - artificial harmonic
TH - tapped harmonic
SH - semi harmonic
PH - pitch harmonic
h - hammer on
p - pull off
b - bend
br - bendRelease
pb - preBend
pbr - preBendRelease
brb - bendReleaseBend
\n/ - tremolo bar dip
\n - tremolo bar dive
-/n - tremolo bar Release up
/n\ - tremolo bar inverted dip
/n - tremolo bar return
-\n - tremolo bar Release down
S - shift slide
s - legato slide
/ -  slide into from below or out of upwards
\ -  slide into from above or out of downwards
~ - vibrato
W - wide vibrato
tr - trill
TP - tremolo picking
T - tapping
S - slap
P - pop
< - fade in
^ - brush up
v - brush down







Git 1



      PM                                                  
      E  E  E  E  E  E  E  E     E  E  E  E  E  E  E  E   
B ||--------------------------|--------------------------|
F#||--------------------------|--------------------------|
D ||--------------------------|--------------------------|
A ||--------8--7--------5--7--|--------8--7--------5--7--|
E ||-----5-----------5--------|-----5-----------5--------|
A ||--5-----------------------|--------------------------|


  E  E   E  E  E  E  E  E     E  E  E   E  E  E   E  E   
---------------------------|----------------------------|
---------------------------|----------------------------|
--------10--9--------9--7--|--------7-------------------|
-----7------------7--------|-----7-----10-----7--10--7--|
---------------------------|----------------------------|
---------------------------|----------------------------|


  E  E  E  E  E  E  E  E     E  E  E  E  E  E  E  E   
--------------------------|--------------------------|
--------------------------|--------------------------|
--------9--7--------5--7--|--------9--7--------5--7--|
-----5-----------5--------|-----5-----------5--------|
--------------------------|--------------------------|
--------------------------|--------------------------|


  E  E   E   E  E  E   E  E     E  E  E  E  E  E  E  E   
-----------------------------|--------------------------|
-----------------------------|--------------------------|
-----------------------------|--------------------------|
--------12--10--------10--8--|--------8--7--------8-----|
-----8-------------8---------|-----8-----------8-----9--|
-----------------------------|--------------------------|


  E  E  E  E  E  E  E  E     E  E  E  E  E  E  E  E   
--------------------------|--------------------------|
--------------------------|--------------------------|
--------------------------|--------------------------|
--------8--7--------5--7--|--------8--7--------5--7--|
-----5-----------5--------|-----5-----------5--------|
--------------------------|--------------------------|


  E  E   E  E  E  E  E  E     E  E  E   E  E  E   E  E   
---------------------------|----------------------------|
---------------------------|----------------------------|
--------10--9--------9--7--|--------7-------------------|
-----7------------7--------|-----7-----10-----7--10--7--|
---------------------------|----------------------------|
---------------------------|----------------------------|


  E  E  E  E  E  E  E  E     E  E  E  E  E  E  E  E   
--------------------------|--------------------------|
--------------------------|--------------------------|
--------9--7--------5--7--|--------9--7--------5--7--|
-----5-----------5--------|-----5-----------5--------|
--------------------------|--------------------------|
--------------------------|--------------------------|


  E  E   E   E  E  E   E  E     E  E  E  E  E  E  E  E   
-----------------------------|--------------------------|
-----------------------------|--------------------------|
-----------------------------|--------------------------|
--------12--10--------10--8--|--------8--7--------8-----|
-----8-------------8---------|-----8-----------8-----9--|
-----------------------------|--------------------------|


  E  E  E  E  E  E  E  E     E  E  E  E  E  E  E  E   
--------------------------|--------------------------|
--------8-----------8-----|--------8-----------8-----|
--0--7-----7--0--7-----7--|--0--7-----7--0--7-----7--|
--------------------------|--------------------------|
--------------------------|--------------------------|
--------------------------|--------------------------|


  E  E  E  E  E  E  E  E     E  E  E  E  E  E  E  E   
--------------------------|--------------------------|
--------------------------|--------------------------|
-----5--7--5-----5--7--5--|-----5--7--5-----5--7--5--|
--7-----------7-----------|--7-----------7-----------|
--------------------------|--------------------------|
--------------------------|--------------------------|


  E  E   E  E  E  E   E  E     E  E   E  E  E  E   E  E   
----------------------------|----------------------------|
--------10-----------10-----|--------10-----------10-----|
-----9------9-----9------9--|-----9------9-----9------9--|
--7------------7------------|--7------------7------------|
----------------------------|----------------------------|
----------------------------|----------------------------|


  E  E   E  E  E  E   E  E     E  E   E  E  E  E   E  E   
----------------------------|----------------------------|
----------------------------|----------------------------|
--0--7--10--7--0--7--10--7--|--0--7--10--7--0--7--10--7--|
----------------------------|----------------------------|
----------------------------|----------------------------|
----------------------------|----------------------------|


  E  E  E  E  E  E  E  E     E  E  E  E  E  E  E  E   
--------------------------|--------------------------|
--------8-----------8-----|--------8-----------8-----|
--0--7-----7--0--7-----7--|--0--7-----7--0--7-----7--|
--------------------------|--------------------------|
--------------------------|--------------------------|
--------------------------|--------------------------|


  E  E  E  E  E  E  E  E     E  E  E  E  E  E  E  E   
--------------------------|--------------------------|
--------------------------|--------------------------|
-----5--7--5-----5--7--5--|-----5--7--5-----5--7--5--|
--7-----------7-----------|--7-----------7-----------|
--------------------------|--------------------------|
--------------------------|--------------------------|


  E  E   E  E  E  E   E  E     E  E   E  E  E  E   E  E   
----------------------------|----------------------------|
--------10-----------10-----|--------10-----------10-----|
-----9------9-----9------9--|-----9------9-----9------9--|
--7------------7------------|--7------------7------------|
----------------------------|----------------------------|
----------------------------|----------------------------|


  E  E   E  E  E  E   E  E     E  E   E  E  E  E   E  E   
----------------------------|----------------------------|
----------------------------|----------------------------|
--0--7--10--7--0--7--10--7--|--0--7--10--7--0--7--10--7--|
----------------------------|----------------------------|
----------------------------|----------------------------|
----------------------------|----------------------------|


  PM PM    PM       PM          PM                   
  E  E  E  E  E  E  E  E     E  E  Q    E   E  Q     
--------------------------|-------------------------|
--------------------------|-------------------------|
--------------------------|-------------------------|
--------5-----8--7-----5--|--L-----5----5s--7--7----|
-----5-----5--------8--6--|--L-----3----3s--5--5----|
--5--------------------5--|--L--5-------------------|


  PM PM    PM       PM          PM                   
  E  E  E  E  E  E  E  E     E  E  Q    E  E  Q      
--------------------------|-------------------------|
--------------------------|-------------------------|
--------------------------|-------------------------|
--------5-----8--7-----5--|--L-----5----7--8--5\----|
-----5-----5--------8--6--|--L-----3----------------|
--5--------------------5--|--L--5-------------------|


  PM PM    PM       PM          PM                   
  E  E  E  E  E  E  E  E     E  E  Q    E   E  Q     
--------------------------|-------------------------|
--------------------------|-------------------------|
--------------------------|-------------------------|
--------5-----8--7-----5--|--L-----5----5s--7--7----|
-----5-----5--------8--6--|--L-----3----3s--5--5----|
--5--------------------5--|--L--5-------------------|


  PM PM    PM       PM                         
  E  E  E  E  E  E  E  E     W                 
--------------------------|-------------------|
--------------------------|-------------------|
--------------------------|-------------------|
--------5-----8--7-----5--|--L----------------|
-----5-----5--------8--6--|--L----------------|
--5--------------------5--|--L----------------|


  PM                                                  
  E  E  E  E  E  E  E  E     E  E  E  E  E  E  E  E   
--------------------------|--------------------------|
--------------------------|--------------------------|
--------------------------|--------------------------|
--------8--7--------5--7--|--------8--7--------5--7--|
-----5-----------5--------|-----5-----------5--------|
--5-----------------------|--------------------------|


  E  E   E  E  E  E  E  E     E  E  E   E  E  E   E  E   
---------------------------|----------------------------|
---------------------------|----------------------------|
--------10--9--------9--7--|--------7-------------------|
-----7------------7--------|-----7-----10-----7--10--7--|
---------------------------|----------------------------|
---------------------------|----------------------------|


  E  E  E  E  E  E  E  E     E  E  E  E  E  E  E  E   
--------------------------|--------------------------|
--------------------------|--------------------------|
--------9--7--------5--7--|--------9--7--------5--7--|
-----5-----------5--------|-----5-----------5--------|
--------------------------|--------------------------|
--------------------------|--------------------------|


  E  E   E   E  E  E   E  E     E  E  E  E  E  E  E  E   
-----------------------------|--------------------------|
-----------------------------|--------------------------|
-----------------------------|--------------------------|
--------12--10--------10--8--|--------8--7--------8-----|
-----8-------------8---------|-----8-----------8-----9--|
-----------------------------|--------------------------|


  E  E  E  E  E  E  E  E     E  E  E  E  E  E  E  E   
--------------------------|--------------------------|
--------------------------|--------------------------|
--------------------------|--------------------------|
--------8--7--------5--7--|--------8--7--------5--7--|
-----5-----------5--------|-----5-----------5--------|
--------------------------|--------------------------|


  E  E   E  E  E  E  E  E     E  E  E   E  E  E   E  E   
---------------------------|----------------------------|
---------------------------|----------------------------|
--------10--9--------9--7--|--------7-------------------|
-----7------------7--------|-----7-----10-----7--10--7--|
---------------------------|----------------------------|
---------------------------|----------------------------|


  E  E  E  E  E  E  E  E     E  E  E  E  E  E  E  E   
--------------------------|--------------------------|
--------------------------|--------------------------|
--------9--7--------5--7--|--------9--7--------5--7--|
-----5-----------5--------|-----5-----------5--------|
--------------------------|--------------------------|
--------------------------|--------------------------|


  E  E   E   E  E  E   E  E     E  E  E  E  E  E  E  E   
-----------------------------|--------------------------|
-----------------------------|--------------------------|
-----------------------------|--------------------------|
--------12--10--------10--8--|--------8--7--------8-----|
-----8-------------8---------|-----8-----------8-----9--|
-----------------------------|--------------------------|


  E  E  E  E  E  E  E  E     E  E  E  E  E  E  E  E   
--------------------------|--------------------------|
--------8-----------8-----|--------8-----------8-----|
--0--7-----7--0--7-----7--|--0--7-----7--0--7-----7--|
--------------------------|--------------------------|
--------------------------|--------------------------|
--------------------------|--------------------------|


  E  E  E  E  E  E  E  E     E  E  E  E  E  E  E  E   
--------------------------|--------------------------|
--------------------------|--------------------------|
-----5--7--5-----5--7--5--|-----5--7--5-----5--7--5--|
--7-----------7-----------|--7-----------7-----------|
--------------------------|--------------------------|
--------------------------|--------------------------|


  E  E   E  E  E  E   E  E     E  E   E  E  E  E   E  E   
----------------------------|----------------------------|
--------10-----------10-----|--------10-----------10-----|
-----9------9-----9------9--|-----9------9-----9------9--|
--7------------7------------|--7------------7------------|
----------------------------|----------------------------|
----------------------------|----------------------------|


  E  E   E  E  E  E   E  E     E  E   E  E  E  E   E  E   
----------------------------|----------------------------|
----------------------------|----------------------------|
--0--7--10--7--0--7--10--7--|--0--7--10--7--0--7--10--7--|
----------------------------|----------------------------|
----------------------------|----------------------------|
----------------------------|----------------------------|


  E  E  E  E  E  E  E  E     E  E  E  E  E  E  E  E   
--------------------------|--------------------------|
--------8-----------8-----|--------8-----------8-----|
--0--7-----7--0--7-----7--|--0--7-----7--0--7-----7--|
--------------------------|--------------------------|
--------------------------|--------------------------|
--------------------------|--------------------------|


  E  E  E  E  E  E  E  E     E  E  E  E  E  E  E  E   
--------------------------|--------------------------|
--------------------------|--------------------------|
-----5--7--5-----5--7--5--|-----5--7--5-----5--7--5--|
--7-----------7-----------|--7-----------7-----------|
--------------------------|--------------------------|
--------------------------|--------------------------|


  E  E   E  E  E  E   E  E     E  E   E  E  E  E   E  E   
----------------------------|----------------------------|
--------10-----------10-----|--------10-----------10-----|
-----9------9-----9------9--|-----9------9-----9------9--|
--7------------7------------|--7------------7------------|
----------------------------|----------------------------|
----------------------------|----------------------------|


  E  E   E  E  E  E   E  E     E  E   E  E  E  E   E  E   
----------------------------|----------------------------|
----------------------------|----------------------------|
--0--7--10--7--0--7--10--7--|--0--7--10--7--0--7--10--7--|
----------------------------|----------------------------|
----------------------------|----------------------------|
----------------------------|----------------------------|


  PM PM    PM       PM          PM                   
  E  E  E  E  E  E  E  E     E  E  Q    E   E  Q     
--------------------------|-------------------------|
--------------------------|-------------------------|
--------------------------|-------------------------|
--------5-----8--7-----5--|--L-----5----5s--7--7----|
-----5-----5--------8--6--|--L-----3----3s--5--5----|
--5--------------------5--|--L--5-------------------|


  PM PM    PM       PM          PM                   
  E  E  E  E  E  E  E  E     E  E  Q    E  E  Q      
--------------------------|-------------------------|
--------------------------|-------------------------|
--------------------------|-------------------------|
--------5-----8--7-----5--|--L-----5----7--8--5\----|
-----5-----5--------8--6--|--L-----3----------------|
--5--------------------5--|--L--5-------------------|


  PM PM    PM       PM          PM                   
  E  E  E  E  E  E  E  E     E  E  Q    E   E  Q     
--------------------------|-------------------------|
--------------------------|-------------------------|
--------------------------|-------------------------|
--------5-----8--7-----5--|--L-----5----5s--7--7----|
-----5-----5--------8--6--|--L-----3----3s--5--5----|
--5--------------------5--|--L--5-------------------|


  PM PM    PM       PM          PM                  
  E  E  E  E  E  E  E  E     E  E  Q    E  E  Q     
--------------------------|------------------------|
--------------------------|------------------------|
--------------------------|------------------------|
--------5-----8--7-----5--|--L-----5----7--8--5----|
-----5-----5--------8--6--|--L-----3----7--8--5----|
--5--------------------5--|--L--5-------7--8--5----|


  W                   W                   W                 
-------------------|-------------------|-------------------|
-------------------|-------------------|-------------------|
-------------------|-------------------|-------------------|
--L----------------|--L----------------|--L----------------|
--L----------------|--L----------------|--L----------------|
--L----------------|--L----------------|--L----------------|


                     PM                PM     
  H.           E     E  E  E  E  E  E  E  E   
------------------|--------------------------|
------------------|--------------------------|
------------------|--------------------------|
--L------------L--|-----5--8--7--8--5-----5--|
--L------------L--|--5--5--8--7--8--5--5--5--|
--L------------L--|--5--5--8--7--8--5--5--5--|


  PM                PM       PM                PM     
  E  E  E  E  E  E  E  E     E  E  E  E  E  E  E  E   
--------------------------|--------------------------|
--------------------------|--------------------------|
--------------------------|--------------------------|
-----5--8--7--8--5-----5--|-----5--8--7--8--5-----5--|
--5--5--8--7--8--5--5--5--|--5--5--8--7--8--5--5--5--|
--5--5--8--7--8--5--5--5--|--5--5--8--7--8--5--5--5--|


  PM                PM       PM                PM     
  E  E  E  E  E  E  E  E     E  E  E  E  E  E  E  E   
--------------------------|--------------------------|
--------------------------|--------------------------|
--------------------------|--------------------------|
-----5--8--7--8--5-----5--|-----5--8--7--8--5-----5--|
--5--5--8--7--8--5--5--5--|--5--5--8--7--8--5--5--5--|
--5--5--8--7--8--5--5--5--|--5--5--8--7--8--5--5--5--|


  PM                          PM                PM     
  E  E  E  E   E  E  E  E     E  E  E  E  E  E  E  E   
---------------------------|--------------------------|
---------------------------|--------------------------|
---------------------------|--------------------------|
-----5--8--7--10--7--7--3--|-----3--7--5--7--3-----3--|
--5--5--8--7--10--7--7--3--|--3--3--7--5--7--3--3--3--|
--5--5--8--7--10--7--7--3--|--3--3--7--5--7--3--3--3--|


  PM                         PM                PM     
  E  E  E  E  E  E  E  E     E  E  E  E  E  E  E  E   
--------------------------|--------------------------|
--------------------------|--------------------------|
--------------------------|--------------------------|
-----3--7--5--8--5--5--0--|-----5--8--7--8--5-----5--|
--3--3--7--5--8--5--5--0--|--5--5--8--7--8--5--5--5--|
--3--3--7--5--8--5--5--0--|--5--5--8--7--8--5--5--5--|


  PM                          PM                PM     
  E  E  E  E   E  E  E  E     E  E  E  E  E  E  E  E   
---------------------------|--------------------------|
---------------------------|--------------------------|
---------------------------|--------------------------|
-----5--8--7--10--7--7--3--|-----3--7--5--7--3-----3--|
--5--5--8--7--10--7--7--3--|--3--3--7--5--7--3--3--3--|
--5--5--8--7--10--7--7--3--|--3--3--7--5--7--3--3--3--|


  PM                         PM                PM     
  E  E  E  E  E  E  E  E     E  E  E  E  E  E  E  E   
--------------------------|--------------------------|
--------------------------|--------------------------|
--------------------------|--------------------------|
-----3--7--5--8--5--5--0--|-----5--8--7--8--5-----5--|
--3--3--7--5--8--5--5--0--|--5--5--8--7--8--5--5--5--|
--3--3--7--5--8--5--5--0--|--5--5--8--7--8--5--5--5--|


  PM                          PM                PM     
  E  E  E  E   E  E  E  E     E  E  E  E  E  E  E  E   
---------------------------|--------------------------|
---------------------------|--------------------------|
---------------------------|--------------------------|
-----5--8--7--10--7--7--3--|-----3--7--5--7--3-----3--|
--5--5--8--7--10--7--7--3--|--3--3--7--5--7--3--3--3--|
--5--5--8--7--10--7--7--3--|--3--3--7--5--7--3--3--3--|


  PM                         PM                PM     
  E  E  E  E  E  E  E  E     E  E  E  E  E  E  E  E   
--------------------------|--------------------------|
--------------------------|--------------------------|
--------------------------|--------------------------|
-----3--7--5--8--5--5--0--|-----5--8--7--8--5-----5--|
--3--3--7--5--8--5--5--0--|--5--5--8--7--8--5--5--5--|
--3--3--7--5--8--5--5--0--|--5--5--8--7--8--5--5--5--|


  PM                          PM                PM     
  E  E  E  E   E  E  E  E     E  E  E  E  E  E  E  E   
---------------------------|--------------------------|
---------------------------|--------------------------|
---------------------------|--------------------------|
-----5--8--7--10--7--7--3--|-----3--7--5--7--3-----3--|
--5--5--8--7--10--7--7--3--|--3--3--7--5--7--3--3--3--|
--5--5--8--7--10--7--7--3--|--3--3--7--5--7--3--3--3--|


  PM                                                          
  E  E  E  E  E  E  E  E     S S S S S S S S S S S S S S S S  
--------------------------|----------------------------------|
--------------------------|----------------------------------|
--------------------------|----------------------------------|
-----3--7--5--8--5--5--0--|--5-5-5-5-5-5-7-7-7-7-7-7-8-8-8-8-|
--3--3--7--5--8--5--5--0--|----------------------------------|
--3--3--7--5--8--5--5--0--|----------------------------------|


  S S S S S S S S S S S S S S S S    S S S S S S S S S S S S S S S S  
----------------------------------|----------------------------------|
------------------8-8-8-8-8-8-8-8-|--6-6-6-6-6-6-5-5-5-5-5-5-6-6-6-6-|
------7-7-7-7-7-7-----------------|----------------------------------|
--8-8-----------------------------|----------------------------------|
----------------------------------|----------------------------------|
----------------------------------|----------------------------------|


  S S S S S S S S S S S S S S S S    S S S S S S S S S S S S S S S S  
----------------------------------|----------------------------------|
----------------------------------|--5-5-5-5-5-5-------------5-5-5-5-|
--7-7-7-7-7-7-7-7-7-7-7-7-7-7-7-7-|--------------7-7-7-7-7-7---------|
----------------------------------|----------------------------------|
----------------------------------|----------------------------------|
----------------------------------|----------------------------------|


  S S S S S S S S S S S S S S S S    S S S S S S S S S S S S S S S S  
----------------------------------|----------------------------------|
----------------------------------|----------------------------------|
--5-5-5-5-5-5-5-5-5-5-5-5-5-5-5-5-|--7-7-7-7-7-7-5-5-5-5-5-5-7-7-7-7-|
----------------------------------|----------------------------------|
----------------------------------|----------------------------------|
----------------------------------|----------------------------------|


  S S S S S S S S S S S S S S S S    S S S S S S S S S S S S S S S S  
----------------------------------|----------------------------------|
----------------------------------|----------------------------------|
----------------------------------|----------------------------------|
--7-7-7-7-7-7-7-7-7-7-7-7-7-7-7-7-|--5-5-5-5-5-5-7-7-7-7-7-7-8-8-8-8-|
----------------------------------|----------------------------------|
----------------------------------|----------------------------------|


  S S S S S S S S S S S S S S S S    S S S S S S S S S S S S S S S S  
----------------------------------|----------------------------------|
------------------8-8-8-8-8-8-8-8-|--6-6-6-6-6-6-5-5-5-5-5-5-6-6-6-6-|
------7-7-7-7-7-7-----------------|----------------------------------|
--8-8-----------------------------|----------------------------------|
----------------------------------|----------------------------------|
----------------------------------|----------------------------------|


  S S S S S S S S S S S S S S S S    S S S S S S S S S S S S S S S S  
----------------------------------|----------------------------------|
----------------------------------|--5-5-5-5-5-5-------------5-5-5-5-|
--7-7-7-7-7-7-7-7-7-7-7-7-7-7-7-7-|--------------7-7-7-7-7-7---------|
----------------------------------|----------------------------------|
----------------------------------|----------------------------------|
----------------------------------|----------------------------------|


  S S S S S S S S S S S S S S S S    S S S S S S S S S S S S S S S S  
----------------------------------|----------------------------------|
----------------------------------|--8-8-8-8-8-8-6-6-6-6-6-6-8-8-8-8-|
--5-5-5-5-5-5-5-5-5-5-5-5-5-5-5-5-|----------------------------------|
----------------------------------|----------------------------------|
----------------------------------|----------------------------------|
----------------------------------|----------------------------------|


  S S S S S S S S S S S S S S S S    S S S S S S S S S S S S S S S S  
----------------------------------|----------------------------------|
----------------------------------|----------------------------------|
--7-7-7-7-7-7-7-7-7-7-7-7-7-7-7-7-|----------------------------------|
----------------------------------|--5-5-5-5-5-5-7-7-7-7-7-7-8-8-8-8-|
----------------------------------|----------------------------------|
----------------------------------|----------------------------------|


  S S S S S S S S S S S S S S S S    S S S S S S S S S S S S S S S S  
----------------------------------|----------------------------------|
------------------8-8-8-8-8-8-8-8-|--6-6-6-6-6-6-5-5-5-5-5-5-6-6-6-6-|
------7-7-7-7-7-7-----------------|----------------------------------|
--8-8-----------------------------|----------------------------------|
----------------------------------|----------------------------------|
----------------------------------|----------------------------------|


  S S S S S S S S S S S S S S S S    S S S S S S S S S S S S S S S S  
----------------------------------|----------------------------------|
----------------------------------|--5-5-5-5-5-5-------------5-5-5-5-|
--7-7-7-7-7-7-7-7-7-7-7-7-7-7-7-7-|--------------7-7-7-7-7-7---------|
----------------------------------|----------------------------------|
----------------------------------|----------------------------------|
----------------------------------|----------------------------------|


  S S S S S S S S S S S S S S S S    S S S S S S S S S S S S S S S S  
----------------------------------|----------------------------------|
----------------------------------|--8-8-8-8-8-8-6-6-6-6-6-6-8-8-8-8-|
--5-5-5-5-5-5-5-5-5-5-5-5-5-5-5-5-|----------------------------------|
----------------------------------|----------------------------------|
----------------------------------|----------------------------------|
----------------------------------|----------------------------------|


                                     PM                       
  S S S S S S S S S S S S S S S S    E  E  E  E  E  E  E  E   
----------------------------------|--------------------------|
----------------------------------|--------------------------|
--7-7-7-7-7-7-7-7-7-7-7-7-7-7-7-7-|-----3--7--5--7--3--------|
----------------------------------|--3--------------------3--|
----------------------------------|--------------------------|
----------------------------------|--------------------------|


                             PM                PM     
  E  E  E  E  E  E  E  E     E  E  E  E  E  E  E  E   
--------------------------|--------------------------|
--------------------------|--------------------------|
--------9--7--9--5--------|--------------------------|
-----5-----------------5--|-----5--8--7--8--5-----5--|
--------------------------|--5--5--8--7--8--5--5--5--|
--------------------------|--5--5--8--7--8--5--5--5--|


  PM                          PM                PM     
  E  E  E  E   E  E  E  E     E  E  E  E  E  E  E  E   
---------------------------|--------------------------|
---------------------------|--------------------------|
---------------------------|--------------------------|
-----5--8--7--10--7--7--3--|-----3--7--5--7--3-----3--|
--5--5--8--7--10--7--7--3--|--3--3--7--5--7--3--3--3--|
--5--5--8--7--10--7--7--3--|--3--3--7--5--7--3--3--3--|


  PM                         PM                PM     
  E  E  E  E  E  E  E  E     E  E  E  E  E  E  E  E   
--------------------------|--------------------------|
--------------------------|--------------------------|
--------------------------|--------------------------|
-----3--7--5--8--5--5--0--|-----5--8--7--8--5-----5--|
--3--3--7--5--8--5--5--0--|--5--5--8--7--8--5--5--5--|
--3--3--7--5--8--5--5--0--|--5--5--8--7--8--5--5--5--|


  PM                          PM                PM     
  E  E  E  E   E  E  E  E     E  E  E  E  E  E  E  E   
---------------------------|--------------------------|
---------------------------|--------------------------|
---------------------------|--------------------------|
-----5--8--7--10--7--7--3--|-----3--7--5--7--3-----3--|
--5--5--8--7--10--7--7--3--|--3--3--7--5--7--3--3--3--|
--5--5--8--7--10--7--7--3--|--3--3--7--5--7--3--3--3--|


  PM                         PM                PM     
  E  E  E  E  E  E  E  E     E  E  E  E  E  E  E  E   
--------------------------|--------------------------|
--------------------------|--------------------------|
--------------------------|--------------------------|
-----3--7--5--8--5--5--0--|-----5--8--7--8--5-----5--|
--3--3--7--5--8--5--5--0--|--5--5--8--7--8--5--5--5--|
--3--3--7--5--8--5--5--0--|--5--5--8--7--8--5--5--5--|


  PM                          PM                PM     
  E  E  E  E   E  E  E  E     E  E  E  E  E  E  E  E   
---------------------------|--------------------------|
---------------------------|--------------------------|
---------------------------|--------------------------|
-----5--8--7--10--7--7--3--|-----3--7--5--7--3-----3--|
--5--5--8--7--10--7--7--3--|--3--3--7--5--7--3--3--3--|
--5--5--8--7--10--7--7--3--|--3--3--7--5--7--3--3--3--|


  PM                         PM                PM     
  E  E  E  E  E  E  E  E     E  E  E  E  E  E  E  E   
--------------------------|--------------------------|
--------------------------|--------------------------|
--------------------------|--------------------------|
-----3--7--5--8--5--5--0--|-----5--8--7--8--5-----5--|
--3--3--7--5--8--5--5--0--|--5--5--8--7--8--5--5--5--|
--3--3--7--5--8--5--5--0--|--5--5--8--7--8--5--5--5--|


  PM                          PM                PM     
  E  E  E  E   E  E  E  E     E  E  E  E  E  E  E  E   
---------------------------|--------------------------|
---------------------------|--------------------------|
---------------------------|--------------------------|
-----5--8--7--10--7--7--3--|-----3--7--5--7--3-----3--|
--5--5--8--7--10--7--7--3--|--3--3--7--5--7--3--3--3--|
--5--5--8--7--10--7--7--3--|--3--3--7--5--7--3--3--3--|


  PM                         PM                       
  E  E  E  E  E  E  E  E     E  E  E  E  E  E  E  E   
--------------------------|--------------------------|
--------------------------|--------------------------|
--------------------------|-----3--7--5--7--3--------|
-----3--7--5--8--5--5--0--|--3--------------------3--|
--3--3--7--5--8--5--5--0--|--------------------------|
--3--3--7--5--8--5--5--0--|--------------------------|


  E  E  E  E  E  E  E  E     E  E   E  E   E  E  E  E   
--------------------------|----------------------------|
--------------------------|----------------------------|
--------9--7--9--5--------|-----7--10--9--10--7--------|
-----5-----------------5--|--7----------------------7--|
--------------------------|----------------------------|
--------------------------|----------------------------|


  E  E   E  S  S  E  S  S E   E      E  E  E  E  E   E  E   E   
---------------------------------|-----------------------------|
---------------------------------|-----------------------------|
-----7--10--9-10-12--9-10-9------|------7--9--7--9-------------|
-----------------------------10--|--10--------------10-----10--|
---------------------------------|-----------------------------|
---------------------------------|-----------------------------|


  E   E  E  S S  E  S S E  E     E  E   E  E   E  E  E  E   
------------------------------|----------------------------|
------------------------------|----------------------------|
---------9--7-9-10--7-9-7-----|-----7--10--9--10--7--------|
-----10--------------------7--|--7----------------------7--|
------------------------------|----------------------------|
------------------------------|----------------------------|


  E  E   E  S  S  E  S  S E   E      E  E  E  E  E   E  E   E   
---------------------------------|-----------------------------|
---------------------------------|-----------------------------|
-----7--10--9-10-12--9-10-9------|------7--9--7--9-------------|
-----------------------------10--|--10--------------10-----10--|
---------------------------------|-----------------------------|
---------------------------------|-----------------------------|


  E   E  E  S S  E  S S E  E     E  E   E  E   E  E  E  E   
------------------------------|----------------------------|
------------------------------|----------------------------|
---------9--7-9-10--7-9-7-----|-----7--10--9--10--7--------|
-----10--------------------7--|--7----------------------7--|
------------------------------|----------------------------|
------------------------------|----------------------------|


  E  E   E  S  S  E  S  S E   E      E  E  E  E  E   E  E   E   
---------------------------------|-----------------------------|
---------------------------------|-----------------------------|
-----7--10--9-10-12--9-10-9------|------7--9--7--9-------------|
-----------------------------10--|--10--------------10-----10--|
---------------------------------|-----------------------------|
---------------------------------|-----------------------------|


  E   E  E  S S  E  S S E  E     E  E   E  E   E  E  E  E   
------------------------------|----------------------------|
------------------------------|----------------------------|
---------9--7-9-10--7-9-7-----|-----7--10--9--10--7--------|
-----10--------------------7--|--7----------------------7--|
------------------------------|----------------------------|
------------------------------|----------------------------|


  E  E   E  S  S  E  S  S E   E      E  E  E  E  E   E  E   E   
---------------------------------|-----------------------------|
---------------------------------|-----------------------------|
-----7--10--9-10-12--9-10-9------|------7--9--7--9-------------|
-----------------------------10--|--10--------------10-----10--|
---------------------------------|-----------------------------|
---------------------------------|-----------------------------|


  E   E  E  S S  E  S S E  E     E  E   E  E   E  E  E  E   
------------------------------|----------------------------|
------------------------------|----------------------------|
---------9--7-9-10--7-9-7-----|-----7--10--9--10--7--------|
-----10--------------------7--|--7----------------------7--|
------------------------------|----------------------------|
------------------------------|----------------------------|


  E  E   E  S  S  E  S  S E   E      E  E  E  E  E   E  E   E   
---------------------------------|-----------------------------|
---------------------------------|-----------------------------|
-----7--10--9-10-12--9-10-9------|------7--9--7--9-------------|
-----------------------------10--|--10--------------10-----10--|
---------------------------------|-----------------------------|
---------------------------------|-----------------------------|


  E   E  E  S S  E  S S E  E     E  E   E  E   E  E  E  E   
------------------------------|----------------------------|
------------------------------|----------------------------|
---------9--7-9-10--7-9-7-----|-----7--10--9--10--7--------|
-----10--------------------7--|--7----------------------7--|
------------------------------|----------------------------|
------------------------------|----------------------------|


  E  E   E  S  S  E  S  S E   E      E  E  E  E  E   E  E   E   
---------------------------------|-----------------------------|
---------------------------------|-----------------------------|
-----7--10--9-10-12--9-10-9------|------7--9--7--9-------------|
-----------------------------10--|--10--------------10-----10--|
---------------------------------|-----------------------------|
---------------------------------|-----------------------------|


  Slowly fading out...                           
  E                     E  E  S S  E  S S E  E   
------------------------------------------------|
------------------------------------------------|
---------------------------9--7-9-10--7-9-7-----|
-----------------------10--------------------7--|
------------------------------------------------|
------------------------------------------------|


  E  E   E  E   E  E  E  E     E  E   E  S  S  E  S  S E   E   
----------------------------|---------------------------------|
----------------------------|---------------------------------|
-----7--10--9--10--7--------|-----7--10--9-10-12--9-10-9------|
--7----------------------7--|-----------------------------10--|
----------------------------|---------------------------------|
----------------------------|---------------------------------|


   E  E  E  E  E   E  E   E     E   E  E  S S  E  S S E  E   
-----------------------------|------------------------------|
-----------------------------|------------------------------|
------7--9--7--9-------------|---------9--7-9-10--7-9-7-----|
--10--------------10-----10--|-----10--------------------7--|
-----------------------------|------------------------------|
-----------------------------|------------------------------|


  E  E   E  E   E  E  E  E     E  E   E  S  S  E  S  S E   E   
----------------------------|---------------------------------|
----------------------------|---------------------------------|
-----7--10--9--10--7--------|-----7--10--9-10-12--9-10-9------|
--7----------------------7--|-----------------------------10--|
----------------------------|---------------------------------|
----------------------------|---------------------------------|


   E  E  E  E  E   E  E   E     E   E  E  S S  E  S S E  E    
-----------------------------|------------------------------||
-----------------------------|------------------------------||
------7--9--7--9-------------|---------9--7-9-10--7-9-7-----||
--10--------------10-----10--|-----10--------------------7--||
-----------------------------|------------------------------||
-----------------------------|------------------------------||



Git 2



      Q     E   E  Q    E   E     Q     E   E  Q    E   E   
B ||---------------------------|---------------------------|
F#||-------11--10-------8--10--|-------11--10-------8--10--|
D ||---------------------------|---------------------------|
A ||---------------------------|---------------------------|
E ||---------------------------|---------------------------|
A ||---------------------------|---------------------------|


  Q     E   E  Q     E   E     Q     E   E  Q     E   E   
-------13--12-------12--10--|-------10-------------------|
----------------------------|-----------13-------13--10--|
----------------------------|----------------------------|
----------------------------|----------------------------|
----------------------------|----------------------------|
----------------------------|----------------------------|


  E  E  E  E  E  E  E  E     E  E  E  E  E  E  E  E   
--------------------------|--------------------------|
--------------------------|--------------------------|
--------9--7--------5--7--|--------9--7--------5--7--|
-----5-----------5--------|-----5-----------5--------|
--------------------------|--------------------------|
--------------------------|--------------------------|


  Q     E   E  Q     E   E     Q     E   E  E  E  E  E   
----------------------------|---------------------------|
-------15--13-------13--11--|-------11--10--------------|
----------------------------|---------------------------|
----------------------------|---------------------8-----|
----------------------------|------------------8-----9--|
----------------------------|---------------------------|


  Q     E   E  Q    E   E     Q     E   E  Q    E   E   
---------------------------|---------------------------|
-------11--10-------8--10--|-------11--10-------8--10--|
---------------------------|---------------------------|
---------------------------|---------------------------|
---------------------------|---------------------------|
---------------------------|---------------------------|


  Q     E   E  Q     E   E     Q     E   E  Q     E   E   
-------13--12-------12--10--|-------10-------------------|
----------------------------|-----------13-------13--10--|
----------------------------|----------------------------|
----------------------------|----------------------------|
----------------------------|----------------------------|
----------------------------|----------------------------|


  E  E  E  E  E  E  E  E     E  E  E  E  E  E  E  E   
--------------------------|--------------------------|
--------------------------|--------------------------|
--------9--7--------5--7--|--------9--7--------5--7--|
-----5-----------5--------|-----5-----------5--------|
--------------------------|--------------------------|
--------------------------|--------------------------|


  Q     E   E  Q     E   E     Q     E   E  E  E  E  E   
----------------------------|---------------------------|
-------15--13-------13--11--|-------11--10--------------|
----------------------------|---------------------------|
----------------------------|---------------------8-----|
----------------------------|------------------8-----9--|
----------------------------|---------------------------|


  W                   H        H           W                 
-------------------|--------------------|-------------------|
-------------------|--------------------|-------------------|
-------------------|--------------------|-------------------|
--5----------------|--L--------8--------|--7----------------|
--5----------------|--L--------8--------|--7----------------|
--5----------------|--L--------8--------|--7----------------|


  W                   W                   H        H         
-------------------|-------------------|--------------------|
-------------------|-------------------|--------------------|
-------------------|-------------------|--------------------|
--3----------------|--7----------------|--L--------8--------|
--3----------------|--7----------------|--L--------8--------|
--3----------------|--7----------------|--L--------8--------|


  E  E  E  E  H           H        H           W                 
-----------------------|--------------------|-------------------|
-----------------------|--------------------|-------------------|
-----------------------|--------------------|-------------------|
--7--8--7--5--L--------|--L--------3--------|--5----------------|
--7--8--7--5--L--------|--L--------3--------|--5----------------|
--7--8--7--5--L--------|--L--------3--------|--5----------------|


  H        H           W                   W                 
--------------------|-------------------|-------------------|
--------------------|-------------------|-------------------|
--------------------|-------------------|-------------------|
--L--------8--------|--7----------------|--3----------------|
--L--------8--------|--7----------------|--3----------------|
--L--------8--------|--7----------------|--3----------------|


  W                   H        H           E  E  E  E  H         
-------------------|--------------------|-----------------------|
-------------------|--------------------|-----------------------|
-------------------|--------------------|-----------------------|
--7----------------|--L--------8--------|--7--8--7--5--L--------|
--7----------------|--L--------8--------|--7--8--7--5--L--------|
--7----------------|--L--------8--------|--7--8--7--5--L--------|


                       PM PM    PM       PM     
  H        H           E  E  E  E  E  E  E  E   
--------------------|--------------------------|
--------------------|--------------------------|
--------------------|--------------------------|
--L--------3--------|--------5-----8--7-----5--|
--L--------3--------|-----5-----5--------8--6--|
--L--------3--------|--5--------------------5--|


     PM                     PM PM    PM       PM     
  E  E  Q    E   E  Q       E  E  E  E  E  E  E  E   
-------------------------|--------------------------|
-------------------------|--------------------------|
-------------------------|--------------------------|
--L-----5----5s--7--7----|--------5-----8--7-----5--|
--L-----3----3s--5--5----|-----5-----5--------8--6--|
--L--5-------------------|--5--------------------5--|


     PM                      PM PM    PM       PM     
  E  E  Q    E   E  Q        E  E  E  E  E  E  E  E   
--------------------------|--------------------------|
--------------------------|--------------------------|
--------------------------|--------------------------|
--L-----5-----------------|--------5-----8--7-----5--|
--L-----3----8--10--7\----|-----5-----5--------8--6--|
--L--5--------------------|--5--------------------5--|


     PM                     PM PM    PM       PM     
  E  E  Q    E   E  Q       E  E  E  E  E  E  E  E   
-------------------------|--------------------------|
-------------------------|--------------------------|
-------------------------|--------------------------|
--L-----5----5s--7--7----|--------5-----8--7-----5--|
--L-----3----3s--5--5----|-----5-----5--------8--6--|
--L--5-------------------|--5--------------------5--|


  W                   Q     E   E  Q    E   E   
-------------------|---------------------------|
-------------------|-------11--10-------8--10--|
-------------------|---------------------------|
--L----------------|---------------------------|
--L----------------|---------------------------|
--L----------------|---------------------------|


  Q     E   E  Q    E   E     Q     E   E  Q     E   E   
---------------------------|-------13--12-------12--10--|
-------11--10-------8--10--|----------------------------|
---------------------------|----------------------------|
---------------------------|----------------------------|
---------------------------|----------------------------|
---------------------------|----------------------------|


  Q     E   E  Q     E   E     E  E  E  E  E  E  E  E   
-------10-------------------|--------------------------|
-----------13-------13--10--|--------------------------|
----------------------------|--------9--7--------5--7--|
----------------------------|-----5-----------5--------|
----------------------------|--------------------------|
----------------------------|--------------------------|


  E  E  E  E  E  E  E  E     E  E   E   E  E  E   E  E   
--------------------------|-----------------------------|
--------------------------|-----------------------------|
--------9--7--------5--7--|-----------------------------|
-----5-----------5--------|--------12--10--------10--8--|
--------------------------|-----8-------------8---------|
--------------------------|-----------------------------|


  E  E  E  E  E  E  E  E     Q     E   E  Q    E   E   
--------------------------|---------------------------|
--------------------------|-------11--10-------8--10--|
--------------------------|---------------------------|
--------8--7--------8-----|---------------------------|
-----8-----------8-----9--|---------------------------|
--------------------------|---------------------------|


  Q     E   E  Q    E   E     Q     E   E  Q     E   E   
---------------------------|-------13--12-------12--10--|
-------11--10-------8--10--|----------------------------|
---------------------------|----------------------------|
---------------------------|----------------------------|
---------------------------|----------------------------|
---------------------------|----------------------------|


  Q     E   E  Q     E   E     E  E  E  E  E  E  E  E   
-------10-------------------|--------------------------|
-----------13-------13--10--|--------------------------|
----------------------------|--------9--7--------5--7--|
----------------------------|-----5-----------5--------|
----------------------------|--------------------------|
----------------------------|--------------------------|


  E  E  E  E  E  E  E  E     E  E   E   E  E  E   E  E   
--------------------------|-----------------------------|
--------------------------|-----------------------------|
--------9--7--------5--7--|-----------------------------|
-----5-----------5--------|--------12--10--------10--8--|
--------------------------|-----8-------------8---------|
--------------------------|-----------------------------|


  E  E  E  E  E  E  E  E     W                   H        H         
--------------------------|-------------------|--------------------|
--------------------------|-------------------|--------------------|
--------------------------|-------------------|--------------------|
--------8--7--------8-----|--5----------------|--L--------8--------|
-----8-----------8-----9--|--5----------------|--L--------8--------|
--------------------------|--5----------------|--L--------8--------|


  W                   W                   W                 
-------------------|-------------------|-------------------|
-------------------|-------------------|-------------------|
-------------------|-------------------|-------------------|
--7----------------|--3----------------|--7----------------|
--7----------------|--3----------------|--7----------------|
--7----------------|--3----------------|--7----------------|


  H        H           E  E  E  E  H           H        H         
--------------------|-----------------------|--------------------|
--------------------|-----------------------|--------------------|
--------------------|-----------------------|--------------------|
--L--------8--------|--7--8--7--5--L--------|--L--------3--------|
--L--------8--------|--7--8--7--5--L--------|--L--------3--------|
--L--------8--------|--7--8--7--5--L--------|--L--------3--------|


  W                   H        H           W                 
-------------------|--------------------|-------------------|
-------------------|--------------------|-------------------|
-------------------|--------------------|-------------------|
--5----------------|--L--------8--------|--7----------------|
--5----------------|--L--------8--------|--7----------------|
--5----------------|--L--------8--------|--7----------------|


  W                   W                   H        H         
-------------------|-------------------|--------------------|
-------------------|-------------------|--------------------|
-------------------|-------------------|--------------------|
--3----------------|--7----------------|--L--------8--------|
--3----------------|--7----------------|--L--------8--------|
--3----------------|--7----------------|--L--------8--------|


  E  E  E  E  H           H        H         
-----------------------|--------------------|
-----------------------|--------------------|
-----------------------|--------------------|
--7--8--7--5--L--------|--L--------3--------|
--7--8--7--5--L--------|--L--------3--------|
--7--8--7--5--L--------|--L--------3--------|


  PM PM    PM       PM          PM                   
  E  E  E  E  E  E  E  E     E  E  Q    E   E  Q     
--------------------------|-------------------------|
--------------------------|-------------------------|
--------------------------|-------------------------|
--------5-----8--7-----5--|--L-----5----5s--7--7----|
-----5-----5--------8--6--|--L-----3----3s--5--5----|
--5--------------------5--|--L--5-------------------|


  PM PM    PM       PM          PM                    
  E  E  E  E  E  E  E  E     E  E  Q    E   E  Q      
--------------------------|--------------------------|
--------------------------|--------------------------|
--------------------------|--------------------------|
--------5-----8--7-----5--|--L-----5-----------------|
-----5-----5--------8--6--|--L-----3----8--10--7\----|
--5--------------------5--|--L--5--------------------|


  PM PM    PM       PM          PM                   
  E  E  E  E  E  E  E  E     E  E  Q    E   E  Q     
--------------------------|-------------------------|
--------------------------|-------------------------|
--------------------------|-------------------------|
--------5-----8--7-----5--|--L-----5----5s--7--7----|
-----5-----5--------8--6--|--L-----3----3s--5--5----|
--5--------------------5--|--L--5-------------------|


  PM PM    PM       PM          PM                    
  E  E  E  E  E  E  E  E     E  E  Q     E   E  Q     
--------------------------|--------------------------|
--------------------------|-------------10--11--8----|
--------------------------|--------------------------|
--------5-----8--7-----5--|--L-----5-----------------|
-----5-----5--------8--6--|--L-----3-----------------|
--5--------------------5--|--L--5--------------------|


  W                   W                   W                 
-------------------|-------------------|-------------------|
--L----------------|--L----------------|--L----------------|
-------------------|-------------------|-------------------|
-------------------|-------------------|-------------------|
-------------------|-------------------|-------------------|
-------------------|-------------------|-------------------|


                     PM                PM     
  H.           E     E  E  E  E  E  E  E  E   
------------------|--------------------------|
--L------------L--|--------------------------|
------------------|--------------------------|
------------------|-----5--8--7--8--5-----5--|
------------------|--5--5--8--7--8--5--5--5--|
------------------|--5--5--8--7--8--5--5--5--|


  PM                PM       PM                PM     
  E  E  E  E  E  E  E  E     E  E  E  E  E  E  E  E   
--------------------------|--------------------------|
--------------------------|--------------------------|
--------------------------|--------------------------|
-----5--8--7--8--5-----5--|-----5--8--7--8--5-----5--|
--5--5--8--7--8--5--5--5--|--5--5--8--7--8--5--5--5--|
--5--5--8--7--8--5--5--5--|--5--5--8--7--8--5--5--5--|


  PM                PM                                   
  E  E  E  E  E  E  E  E     E  E   E   E   E  E  E  E   
--------------------------|-----------------------------|
--------------------------|-----8--11--10--11--8-----8--|
--------------------------|-----------------------------|
-----5--8--7--8--5-----5--|-----------------------------|
--5--5--8--7--8--5--5--5--|-----------------------------|
--5--5--8--7--8--5--5--5--|-----------------------------|


  E  E   E   E   E   E   E  E     E  E   E  E   E  E  E  E   
-------------------------------|----------------------------|
-----8--11--10--13--10--10--6--|-----6--10--8--10--6-----6--|
-------------------------------|----------------------------|
-------------------------------|----------------------------|
-------------------------------|----------------------------|
-------------------------------|----------------------------|


  E  E   E  E   E  E  E  E     E  E   E   E   E  E  E  E   
----------------------------|-----------------------------|
-----6--10--8--11--8--8-----|-----8--11--10--11--8-----8--|
-------------------------7--|-----------------------------|
----------------------------|-----------------------------|
----------------------------|-----------------------------|
----------------------------|-----------------------------|


  E  E   E   E   E   E   E  E     E  E   E  E   E  E  E  E   
-------------------------------|----------------------------|
-----8--11--10--13--10--10--6--|-----6--10--8--10--6-----6--|
-------------------------------|----------------------------|
-------------------------------|----------------------------|
-------------------------------|----------------------------|
-------------------------------|----------------------------|


  E  E   E  E   E  E  E  E     E  E   E   E   E  E  E  E   
----------------------------|-----------------------------|
-----6--10--8--11--8--8-----|-----8--11--10--11--8-----8--|
-------------------------7--|-----------------------------|
----------------------------|-----------------------------|
----------------------------|-----------------------------|
----------------------------|-----------------------------|


  E  E   E   E   E   E   E  E     E  E   E  E   E  E  E  E   
-------------------------------|----------------------------|
-----8--11--10--13--10--10--6--|-----6--10--8--10--6-----6--|
-------------------------------|----------------------------|
-------------------------------|----------------------------|
-------------------------------|----------------------------|
-------------------------------|----------------------------|


  E  E   E  E   E  E  E  E     E  E   E   E   E  E  E  E   
----------------------------|-----------------------------|
-----6--10--8--11--8--8-----|-----8--11--10--11--8-----8--|
-------------------------7--|-----------------------------|
----------------------------|-----------------------------|
----------------------------|-----------------------------|
----------------------------|-----------------------------|


  E  E   E   E   E   E   E  E     E  E   E  E   E  E  E  E   
-------------------------------|----------------------------|
-----8--11--10--13--10--10--6--|-----6--10--8--10--6-----6--|
-------------------------------|----------------------------|
-------------------------------|----------------------------|
-------------------------------|----------------------------|
-------------------------------|----------------------------|


  E  E   E  E   E  E  E  E     S S S S S S S S S S S S S S S S  
----------------------------|----------------------------------|
-----6--10--8--11--8--8-----|----------------------------------|
-------------------------7--|----------------------------------|
----------------------------|----------------------------------|
----------------------------|----------------------------------|
----------------------------|--5-5-5-5-5-5-5-5-5-5-5-5-5-5-5-5-|


  S S S S S S S S S S S S S S S S    S S S S S S S S S S S S S S S S  
----------------------------------|----------------------------------|
----------------------------------|----------------------------------|
----------------------------------|----------------------------------|
----------------------------------|----------------------------------|
----------------------------------|----------------------------------|
--5-5-5-5-5-5-5-5-5-5-5-5-5-5-5-5-|--0-0-0-0-0-0-0-0-0-0-0-0-0-0-0-0-|


  S S S S S S S S S S S S S S S S    S S S S S S S S S S S S S S S S  
----------------------------------|----------------------------------|
----------------------------------|----------------------------------|
----------------------------------|----------------------------------|
----------------------------------|----------------------------------|
----------------------------------|--3-3-3-3-3-3-3-3-3-3-3-3-3-3-3-3-|
--0-0-0-0-0-0-0-0-0-0-0-0-0-0-0-0-|----------------------------------|


  S S S S S S S S S S S S S S S S    S S S S S S S S S S S S S S S S  
----------------------------------|----------------------------------|
----------------------------------|----------------------------------|
----------------------------------|----------------------------------|
----------------------------------|----------------------------------|
--3-3-3-3-3-3-3-3-3-3-3-3-3-3-3-3-|--1-1-1-1-1-1-1-1-1-1-1-1-1-1-1-1-|
----------------------------------|----------------------------------|


  S S S S S S S S S S S S S S S S    S S S S S S S S S S S S S S S S  
----------------------------------|----------------------------------|
----------------------------------|----------------------------------|
----------------------------------|----------------------------------|
----------------------------------|----------------------------------|
--1-1-1-1-1-1-1-1-1-1-1-1-1-1-1-1-|----------------------------------|
----------------------------------|--5-5-5-5-5-5-5-5-5-5-5-5-5-5-5-5-|


  S S S S S S S S S S S S S S S S    S S S S S S S S S S S S S S S S  
----------------------------------|----------------------------------|
----------------------------------|----------------------------------|
----------------------------------|----------------------------------|
----------------------------------|----------------------------------|
----------------------------------|----------------------------------|
--5-5-5-5-5-5-5-5-5-5-5-5-5-5-5-5-|--0-0-0-0-0-0-0-0-0-0-0-0-0-0-0-0-|


  S S S S S S S S S S S S S S S S    S S S S S S S S S S S S S S S S  
----------------------------------|----------------------------------|
----------------------------------|----------------------------------|
----------------------------------|----------------------------------|
----------------------------------|----------------------------------|
----------------------------------|--3-3-3-3-3-3-3-3-3-3-3-3-3-3-3-3-|
--0-0-0-0-0-0-0-0-0-0-0-0-0-0-0-0-|----------------------------------|


  S S S S S S S S S S S S S S S S    S S S S S S S S S S S S S S S S  
----------------------------------|----------------------------------|
----------------------------------|----------------------------------|
----------------------------------|----------------------------------|
----------------------------------|----------------------------------|
--3-3-3-3-3-3-3-3-3-3-3-3-3-3-3-3-|--1-1-1-1-1-1-1-1-1-1-1-1-1-1-1-1-|
----------------------------------|----------------------------------|


  S S S S S S S S S S S S S S S S    S S S S S S S S S S S S S S S S  
----------------------------------|----------------------------------|
----------------------------------|----------------------------------|
----------------------------------|----------------------------------|
----------------------------------|----------------------------------|
--1-1-1-1-1-1-1-1-1-1-1-1-1-1-1-1-|----------------------------------|
----------------------------------|--5-5-5-5-5-5-5-5-5-5-5-5-5-5-5-5-|


  S S S S S S S S S S S S S S S S    S S S S S S S S S S S S S S S S  
----------------------------------|----------------------------------|
----------------------------------|----------------------------------|
----------------------------------|----------------------------------|
----------------------------------|----------------------------------|
----------------------------------|----------------------------------|
--5-5-5-5-5-5-5-5-5-5-5-5-5-5-5-5-|--0-0-0-0-0-0-0-0-0-0-0-0-0-0-0-0-|


  S S S S S S S S S S S S S S S S    S S S S S S S S S S S S S S S S  
----------------------------------|----------------------------------|
----------------------------------|----------------------------------|
----------------------------------|----------------------------------|
----------------------------------|----------------------------------|
----------------------------------|--3-3-3-3-3-3-3-3-3-3-3-3-3-3-3-3-|
--0-0-0-0-0-0-0-0-0-0-0-0-0-0-0-0-|----------------------------------|


  S S S S S S S S S S S S S S S S    S S S S S S S S S S S S S S S S  
----------------------------------|----------------------------------|
----------------------------------|----------------------------------|
----------------------------------|----------------------------------|
----------------------------------|----------------------------------|
--3-3-3-3-3-3-3-3-3-3-3-3-3-3-3-3-|--1-1-1-1-1-1-1-1-1-1-1-1-1-1-1-1-|
----------------------------------|----------------------------------|


                                     PM                       
  S S S S S S S S S S S S S S S S    E  E  E  E  E  E  E  E   
----------------------------------|--------------------------|
----------------------------------|--------------------------|
----------------------------------|--------------------------|
----------------------------------|--------------------------|
--1-1-1-1-1-1-1-1-1-1-1-1-1-1-1-1-|-----1--5--3--5--1--------|
----------------------------------|--3--------------------3--|


  E  E  E  E  E  E  E  E     E  E   E   E   E  E  E  E   
--------------------------|-----------------------------|
--------------------------|-----8--11--10--11--8-----8--|
--------------------------|-----------------------------|
--------------------------|-----------------------------|
--------7--5--7--3--------|-----------------------------|
-----5-----------------5--|-----------------------------|


  E  E   E   E   E   E   E  E     E  E   E  E   E  E  E  E   
-------------------------------|----------------------------|
-----8--11--10--13--10--10--6--|-----6--10--8--10--6-----6--|
-------------------------------|----------------------------|
-------------------------------|----------------------------|
-------------------------------|----------------------------|
-------------------------------|----------------------------|


  E  E   E  E   E  E  E  E     E  E   E   E   E  E  E  E   
----------------------------|-----------------------------|
-----6--10--8--11--8--8-----|-----8--11--10--11--8-----8--|
-------------------------7--|-----------------------------|
----------------------------|-----------------------------|
----------------------------|-----------------------------|
----------------------------|-----------------------------|


  E  E   E   E   E   E   E  E     E  E   E  E   E  E  E  E   
-------------------------------|----------------------------|
-----8--11--10--13--10--10--6--|-----6--10--8--10--6-----6--|
-------------------------------|----------------------------|
-------------------------------|----------------------------|
-------------------------------|----------------------------|
-------------------------------|----------------------------|


  E  E   E  E   E  E  E  E     E  E   E   E   E  E  E  E   
----------------------------|-----------------------------|
-----6--10--8--11--8--8-----|-----8--11--10--11--8-----8--|
-------------------------7--|-----------------------------|
----------------------------|-----------------------------|
----------------------------|-----------------------------|
----------------------------|-----------------------------|


  E  E   E   E   E   E   E  E     E  E   E  E   E  E  E  E   
-------------------------------|----------------------------|
-----8--11--10--13--10--10--6--|-----6--10--8--10--6-----6--|
-------------------------------|----------------------------|
-------------------------------|----------------------------|
-------------------------------|----------------------------|
-------------------------------|----------------------------|


  E  E   E  E   E  E  E  E     E  E   E   E   E  E  E  E   
----------------------------|-----------------------------|
-----6--10--8--11--8--8-----|-----8--11--10--11--8-----8--|
-------------------------7--|-----------------------------|
----------------------------|-----------------------------|
----------------------------|-----------------------------|
----------------------------|-----------------------------|


  E  E   E   E   E   E   E  E     E  E   E  E   E  E  E  E   
-------------------------------|----------------------------|
-----8--11--10--13--10--10--6--|-----6--10--8--10--6-----6--|
-------------------------------|----------------------------|
-------------------------------|----------------------------|
-------------------------------|----------------------------|
-------------------------------|----------------------------|


                               PM                       
  E  E   E  E   E  E  E  E     E  E  E  E  E  E  E  E   
----------------------------|--------------------------|
-----6--10--8--11--8--8-----|--------------------------|
-------------------------7--|--------------------------|
----------------------------|--------------------------|
----------------------------|-----1--5--3--5--1--------|
----------------------------|--3--------------------3--|


  E  E  E  E  E  E  E  E     W                 
--------------------------|-------------------|
--------------------------|-------------------|
--------------------------|--7----------------|
--------------------------|--7----------------|
--------7--5--7--3--------|--5----------------|
-----5-----------------5--|-------------------|


  Q.     S S  E  S S E   E     W                 
----------------------------|-------------------|
----------------------------|-------------------|
--L-------------------------|--5----------------|
--L-------------------------|--5----------------|
--L------7-8-10--7-8-7------|--3----------------|
------------------------10--|-------------------|


  Q.     S S E  S S E  E     W                 
--------------------------|-------------------|
--------------------------|-------------------|
--L-----------------------|--7----------------|
--L-----------------------|--7----------------|
--L------5-7-8--5-7-5-----|--5----------------|
-----------------------7--|-------------------|


  Q.     S S  E  S S E   E     W                 
----------------------------|-------------------|
----------------------------|-------------------|
--L-------------------------|--5----------------|
--L-------------------------|--5----------------|
--L------7-8-10--7-8-7------|--3----------------|
------------------------10--|-------------------|


  Q.     S S E  S S E  E     W                 
--------------------------|-------------------|
--------------------------|-------------------|
--L-----------------------|--7----------------|
--L-----------------------|--7----------------|
--L------5-7-8--5-7-5-----|--5----------------|
-----------------------7--|-------------------|


  Q.     S S  E  S S E   E     W                 
----------------------------|-------------------|
----------------------------|-------------------|
--L-------------------------|--5----------------|
--L-------------------------|--5----------------|
--L------7-8-10--7-8-7------|--3----------------|
------------------------10--|-------------------|


  Q.     S S E  S S E  E     W                 
--------------------------|-------------------|
--------------------------|-------------------|
--L-----------------------|--7----------------|
--L-----------------------|--7----------------|
--L------5-7-8--5-7-5-----|--5----------------|
-----------------------7--|-------------------|


  Q.     S S  E  S S E   E     W                 
----------------------------|-------------------|
----------------------------|-------------------|
--L-------------------------|--5----------------|
--L-------------------------|--5----------------|
--L------7-8-10--7-8-7------|--3----------------|
------------------------10--|-------------------|


  Q.     S S E  S S E  E     W                 
--------------------------|-------------------|
--------------------------|-------------------|
--L-----------------------|--7----------------|
--L-----------------------|--7----------------|
--L------5-7-8--5-7-5-----|--5----------------|
-----------------------7--|-------------------|


  Q.     S S  E  S S E   E     W                 
----------------------------|-------------------|
----------------------------|-------------------|
--L-------------------------|--5----------------|
--L-------------------------|--5----------------|
--L------7-8-10--7-8-7------|--3----------------|
------------------------10--|-------------------|


  Q.     S S E  S S E  E     W                 
--------------------------|-------------------|
--------------------------|-------------------|
--L-----------------------|--7----------------|
--L-----------------------|--7----------------|
--L------5-7-8--5-7-5-----|--5----------------|
-----------------------7--|-------------------|


  Q.     S S  E  S S E   E     W                 
----------------------------|-------------------|
----------------------------|-------------------|
--L-------------------------|--5----------------|
--L-------------------------|--5----------------|
--L------7-8-10--7-8-7------|--3----------------|
------------------------10--|-------------------|


  Slowly fading out...                                       
  Q.                   S S E  S S E  E     W                 
----------------------------------------|-------------------|
----------------------------------------|-------------------|
--L-------------------------------------|--7----------------|
--L-------------------------------------|--7----------------|
--L--------------------5-7-8--5-7-5-----|--5----------------|
-------------------------------------7--|-------------------|


  Q.     S S  E  S S E   E     W                 
----------------------------|-------------------|
----------------------------|-------------------|
--L-------------------------|--5----------------|
--L-------------------------|--5----------------|
--L------7-8-10--7-8-7------|--3----------------|
------------------------10--|-------------------|


  Q.     S S E  S S E  E     W                 
--------------------------|-------------------|
--------------------------|-------------------|
--L-----------------------|--7----------------|
--L-----------------------|--7----------------|
--L------5-7-8--5-7-5-----|--5----------------|
-----------------------7--|-------------------|


  Q.     S S  E  S S E   E     W                 
----------------------------|-------------------|
----------------------------|-------------------|
--L-------------------------|--5----------------|
--L-------------------------|--5----------------|
--L------7-8-10--7-8-7------|--3----------------|
------------------------10--|-------------------|


  Q.     S S E  S S E  E    
--------------------------||
--------------------------||
--L-----------------------||
--L-----------------------||
--L------5-7-8--5-7-5-----||
-----------------------7--||


Harmony



B ||-------|-------|-------|-------|-------|-------|-------|-------|
F#||-------|-------|-------|-------|-------|-------|-------|-------|
D ||-------|-------|-------|-------|-------|-------|-------|-------|
A ||-------|-------|-------|-------|-------|-------|-------|-------|
E ||-------|-------|-------|-------|-------|-------|-------|-------|
A ||-------|-------|-------|-------|-------|-------|-------|-------|


-------|-------|-------|-------|-------|-------|-------|-------|
-------|-------|-------|-------|-------|-------|-------|-------|
-------|-------|-------|-------|-------|-------|-------|-------|
-------|-------|-------|-------|-------|-------|-------|-------|
-------|-------|-------|-------|-------|-------|-------|-------|
-------|-------|-------|-------|-------|-------|-------|-------|


-------|-------|-------|-------|-------|-------|-------|-------|
-------|-------|-------|-------|-------|-------|-------|-------|
-------|-------|-------|-------|-------|-------|-------|-------|
-------|-------|-------|-------|-------|-------|-------|-------|
-------|-------|-------|-------|-------|-------|-------|-------|
-------|-------|-------|-------|-------|-------|-------|-------|


-------|-------|-------|-------|-------|-------|-------|-------|
-------|-------|-------|-------|-------|-------|-------|-------|
-------|-------|-------|-------|-------|-------|-------|-------|
-------|-------|-------|-------|-------|-------|-------|-------|
-------|-------|-------|-------|-------|-------|-------|-------|
-------|-------|-------|-------|-------|-------|-------|-------|


-------|-------|-------|-------|-------|-------|-------|-------|
-------|-------|-------|-------|-------|-------|-------|-------|
-------|-------|-------|-------|-------|-------|-------|-------|
-------|-------|-------|-------|-------|-------|-------|-------|
-------|-------|-------|-------|-------|-------|-------|-------|
-------|-------|-------|-------|-------|-------|-------|-------|


-------|-------|-------|-------|-------|-------|-------|-------|
-------|-------|-------|-------|-------|-------|-------|-------|
-------|-------|-------|-------|-------|-------|-------|-------|
-------|-------|-------|-------|-------|-------|-------|-------|
-------|-------|-------|-------|-------|-------|-------|-------|
-------|-------|-------|-------|-------|-------|-------|-------|


-------|-------|-------|-------|-------|-------|-------|-------|
-------|-------|-------|-------|-------|-------|-------|-------|
-------|-------|-------|-------|-------|-------|-------|-------|
-------|-------|-------|-------|-------|-------|-------|-------|
-------|-------|-------|-------|-------|-------|-------|-------|
-------|-------|-------|-------|-------|-------|-------|-------|


-------|-------|-------|-------|-------|-------|-------|-------|
-------|-------|-------|-------|-------|-------|-------|-------|
-------|-------|-------|-------|-------|-------|-------|-------|
-------|-------|-------|-------|-------|-------|-------|-------|
-------|-------|-------|-------|-------|-------|-------|-------|
-------|-------|-------|-------|-------|-------|-------|-------|


-------|-------|-------|-------|-------|-------|-------|-------|
-------|-------|-------|-------|-------|-------|-------|-------|
-------|-------|-------|-------|-------|-------|-------|-------|
-------|-------|-------|-------|-------|-------|-------|-------|
-------|-------|-------|-------|-------|-------|-------|-------|
-------|-------|-------|-------|-------|-------|-------|-------|


-------|-------|-------|-------|-------|-------|-------|-------|
-------|-------|-------|-------|-------|-------|-------|-------|
-------|-------|-------|-------|-------|-------|-------|-------|
-------|-------|-------|-------|-------|-------|-------|-------|
-------|-------|-------|-------|-------|-------|-------|-------|
-------|-------|-------|-------|-------|-------|-------|-------|


-------|-------|-------|-------|-------|-------|-------|-------|
-------|-------|-------|-------|-------|-------|-------|-------|
-------|-------|-------|-------|-------|-------|-------|-------|
-------|-------|-------|-------|-------|-------|-------|-------|
-------|-------|-------|-------|-------|-------|-------|-------|
-------|-------|-------|-------|-------|-------|-------|-------|


-------|-------|-------|-------|-------|-------|-------|-------|
-------|-------|-------|-------|-------|-------|-------|-------|
-------|-------|-------|-------|-------|-------|-------|-------|
-------|-------|-------|-------|-------|-------|-------|-------|
-------|-------|-------|-------|-------|-------|-------|-------|
-------|-------|-------|-------|-------|-------|-------|-------|


-------|-------|-------|-------|-------|-------|-------|-------|
-------|-------|-------|-------|-------|-------|-------|-------|
-------|-------|-------|-------|-------|-------|-------|-------|
-------|-------|-------|-------|-------|-------|-------|-------|
-------|-------|-------|-------|-------|-------|-------|-------|
-------|-------|-------|-------|-------|-------|-------|-------|


-------|-------|-------|-------|-------|-------|-------|-------|
-------|-------|-------|-------|-------|-------|-------|-------|
-------|-------|-------|-------|-------|-------|-------|-------|
-------|-------|-------|-------|-------|-------|-------|-------|
-------|-------|-------|-------|-------|-------|-------|-------|
-------|-------|-------|-------|-------|-------|-------|-------|


-------|-------|-------|-------|-------|-------|-------|-------|
-------|-------|-------|-------|-------|-------|-------|-------|
-------|-------|-------|-------|-------|-------|-------|-------|
-------|-------|-------|-------|-------|-------|-------|-------|
-------|-------|-------|-------|-------|-------|-------|-------|
-------|-------|-------|-------|-------|-------|-------|-------|


-------|-------|-------|-------|-------|-------|-------|-------|
-------|-------|-------|-------|-------|-------|-------|-------|
-------|-------|-------|-------|-------|-------|-------|-------|
-------|-------|-------|-------|-------|-------|-------|-------|
-------|-------|-------|-------|-------|-------|-------|-------|
-------|-------|-------|-------|-------|-------|-------|-------|


-------|-------|-------|-------|-------|-------|-------|-------|
-------|-------|-------|-------|-------|-------|-------|-------|
-------|-------|-------|-------|-------|-------|-------|-------|
-------|-------|-------|-------|-------|-------|-------|-------|
-------|-------|-------|-------|-------|-------|-------|-------|
-------|-------|-------|-------|-------|-------|-------|-------|


-------|-------|-------|-------|-------|-------|-------|-------|
-------|-------|-------|-------|-------|-------|-------|-------|
-------|-------|-------|-------|-------|-------|-------|-------|
-------|-------|-------|-------|-------|-------|-------|-------|
-------|-------|-------|-------|-------|-------|-------|-------|
-------|-------|-------|-------|-------|-------|-------|-------|


-------|-------|-------|-------|-------|-------|-------|-------|
-------|-------|-------|-------|-------|-------|-------|-------|
-------|-------|-------|-------|-------|-------|-------|-------|
-------|-------|-------|-------|-------|-------|-------|-------|
-------|-------|-------|-------|-------|-------|-------|-------|
-------|-------|-------|-------|-------|-------|-------|-------|


                                  E  E   E  E   E  E  E  E   
-------|-------|-------|-------|----------------------------|
-------|-------|-------|-------|-----6--10--8--10--6--------|
-------|-------|-------|-------|--7----------------------7--|
-------|-------|-------|-------|----------------------------|
-------|-------|-------|-------|----------------------------|
-------|-------|-------|-------|----------------------------|


  E  E   E  S  S  E  S  S E  E     E  E  E  E  E  E  E  E   
--------------------------------|--------------------------|
-----6--10--8-10-11--8-10-8-----|-----6--8--6--8-----------|
-----------------------------9--|--9--------------9-----9--|
--------------------------------|--------------------------|
--------------------------------|--------------------------|
--------------------------------|--------------------------|


  E  E  E  S S  E  S S E  E     E  E   E  E   E  E  E  E   
-----------------------------|----------------------------|
--------8--6-8-10--6-8-6-----|-----6--10--8--10--6--------|
-----9--------------------7--|--7----------------------7--|
-----------------------------|----------------------------|
-----------------------------|----------------------------|
-----------------------------|----------------------------|


  E  E   E  S  S  E  S  S E  E     E  E  E  E  E  E  E  E   
--------------------------------|--------------------------|
-----6--10--8-10-11--8-10-8-----|-----6--8--6--8-----------|
-----------------------------9--|--9--------------9-----9--|
--------------------------------|--------------------------|
--------------------------------|--------------------------|
--------------------------------|--------------------------|


  E  E  E  S S  E  S S E  E     E  E   E  E   E  E  E  E   
-----------------------------|----------------------------|
--------8--6-8-10--6-8-6-----|-----6--10--8--10--6--------|
-----9--------------------7--|--7----------------------7--|
-----------------------------|----------------------------|
-----------------------------|----------------------------|
-----------------------------|----------------------------|


  E  E   E  S  S  E  S  S E  E     E  E  E  E  E  E  E  E   
--------------------------------|--------------------------|
-----6--10--8-10-11--8-10-8-----|-----6--8--6--8-----------|
-----------------------------9--|--9--------------9-----9--|
--------------------------------|--------------------------|
--------------------------------|--------------------------|
--------------------------------|--------------------------|


  E  E  E  S S  E  S S E  E     E  E   E  E   E  E  E  E   
-----------------------------|----------------------------|
--------8--6-8-10--6-8-6-----|-----6--10--8--10--6--------|
-----9--------------------7--|--7----------------------7--|
-----------------------------|----------------------------|
-----------------------------|----------------------------|
-----------------------------|----------------------------|


  E  E   E  S  S  E  S  S E  E     E  E  E  E  E  E  E  E   
--------------------------------|--------------------------|
-----6--10--8-10-11--8-10-8-----|-----6--8--6--8-----------|
-----------------------------9--|--9--------------9-----9--|
--------------------------------|--------------------------|
--------------------------------|--------------------------|
--------------------------------|--------------------------|


  Slowly fading out...                          
  E                    E  E  S S  E  S S E  E   
-----------------------------------------------|
--------------------------8--6-8-10--6-8-6-----|
-----------------------9--------------------7--|
-----------------------------------------------|
-----------------------------------------------|
-----------------------------------------------|


  E  E   E  E   E  E  E  E     E  E   E  S  S  E  S  S E  E   
----------------------------|--------------------------------|
-----6--10--8--10--6--------|-----6--10--8-10-11--8-10-8-----|
--7----------------------7--|-----------------------------9--|
----------------------------|--------------------------------|
----------------------------|--------------------------------|
----------------------------|--------------------------------|


  E  E  E  E  E  E  E  E     E  E  E  S S  E  S S E  E   
--------------------------|-----------------------------|
-----6--8--6--8-----------|--------8--6-8-10--6-8-6-----|
--9--------------9-----9--|-----9--------------------7--|
--------------------------|-----------------------------|
--------------------------|-----------------------------|
--------------------------|-----------------------------|


  E  E   E  E   E  E  E  E     E  E   E  S  S  E  S  S E  E   
----------------------------|--------------------------------|
-----6--10--8--10--6--------|-----6--10--8-10-11--8-10-8-----|
--7----------------------7--|-----------------------------9--|
----------------------------|--------------------------------|
----------------------------|--------------------------------|
----------------------------|--------------------------------|


  E  E  E  E  E  E  E  E     E  E  E  S S  E  S S E  E    
--------------------------|-----------------------------||
-----6--8--6--8-----------|--------8--6-8-10--6-8-6-----||
--9--------------9-----9--|-----9--------------------7--||
--------------------------|-----------------------------||
--------------------------|-----------------------------||
--------------------------|-----------------------------||
comments
We did not receive enough feedback on this tab! Please rate:
print report bad tab
1 2 3 4 5
I want to post or [tab]
guest
You may want to rate the tab now too:
select rating
Please do not post tabs as comments. Select "correction" instead!