Oops, an error
Loading. Please wait.

Embrace Of The Endless Ocean Tab

ver2
ver2

Whole song

More versions @911Tabs.com
9,381 views 3 this week
8 commentsread comments
1 2 3 4 5
worth learning
x 5
Autoscroll
+/-
esc
set tempo
stop
Contributor
Hey! There's an official Ultimate Guitar app which is ideal
for learning songs when you're away from computer. Get the app
WARNING: You are trying to view
                                    content from Ultimate-Guitar.com
                                    in an unauthorized application,
                                    which is prohibited.

                                    Please use an official Ultimate
                                    Guitar Tabs application for iPhone,
                                    iPad or Android to access legitimate
                                    chords, guitar, bass, and drum tabs
                                    from Ultimate-Guitar.com database.

                                    Type "ultimate guitar tabs" in Apple
                                    App Store's or Android Market's
                                    search to find the application.
This tab is in drop-D tuning from what I hear, and it sound right. Feel free to 
submit any mistakes there may be.

Tuning: DADGBe  Guitar: 1

Finger taping on intro.

Intro:
e|-------------------------------------------------------|
B|-------------------------------------------------------|
G|-------------------------------------------------------|
D|-9-4-9-4-9-4-9-4-9-4-9-4-11-4-11-4-11-4-12-4-12-4-12-4-|
A|-------------------------------------------------------|
D|-------------------------------------------------------|

e|-----------------------------------------------|
B|-----------------------------------------------|
G|-----------------------------------------------|
D|9-4-9-4-9-4-9-4-9-4-9-4-7-2-7-2-7-2-7-2-7-2-7-2|
A|-----------------------------------------------|
D|-----------------------------------------------|

e|------------------------------------------------------|
B|------------------------------------------------------|
G|9-4-9-4-9-4-9-4-9-4-9-4-11-4-11-4-11-4-12-4-12-4-12-4-|
D|------------------------------------------------------|
A|------------------------------------------------------|
D|------------------------------------------------------|

e|-----------------------------------------------|
B|-----------------------------------------------|
G|-----------------------------------------------|
D|7-2-7-2-7-2-7-2-7-2-7-2-7-2-7-2-7-2-7-2-7-2-7-2|
A|-----------------------------------------------|
D|-----------------------------------------------|

e|-------------------------------------------------------|
B|-------------------------------------------------------|
G|-------------------------------------------------------|
D|-9-4-9-4-9-4-9-4-9-4-9-4-11-4-11-4-11-4-12-4-12-4-12-4-|
A|-------------------------------------------------------|
D|-------------------------------------------------------|

e|-----------------------------------------------|
B|-----------------------------------------------|
G|-----------------------------------------------|
D|9-4-9-4-9-4-9-4-9-4-9-4-7-2-7-2-7-2-7-2-7-2-7-2|
A|-----------------------------------------------|
D|-----------------------------------------------|

e|------------------------------------------------------|
B|------------------------------------------------------|
G|9-4-9-4-9-4-9-4-9-4-9-4-11-4-11-4-11-4-12-4-12-4-12-4-|
D|------------------------------------------------------|
A|------------------------------------------------------|
D|------------------------------------------------------|

e|-----------------------------------------------|
B|-----------------------------------------------|
G|-----------------------------------------------|
D|7-2-7-2-7-2-7-2-7-2-7-2-7-2-7-2-7-2-7-2-7-2-7-2|
A|-----------------------------------------------|
D|-----------------------------------------------|

Verse 1:
e|----------------------------------------------------------|
B|----------------------------------------------------------|
G|----------------------------------------------------------|
D|----------------------------------------------------------|
A|----------2-2-2-2-2-2-2-2-2-0-0-0-2-2-2-2-2-2-2-2-2-5-5-5-|
D|0-0-4-0--4-4-4-4-4-4-4-4-4-4-4-4-4-4-4-4-4-4-4-4-4-4-7-7-7|
  ' ' ' '  ' ' ' ' ' ' ' ' ' ' ' ' ' ' ' ' ' ' ' ' ' ' ' ' '
e|--------------------------------------------------|
B|--------------------------------------------------|
G|--------------------------------------------------|
D|--------------------------------------------------|
A|7-7-7-7-7-7-7-7-7-7-4-4-4-5-5-5-5-5-5-5-5-5-4-4-4-|
D|-7-7-7-7-7-7-7-7-7-7-7-7-7-7-7-7-7-7-7-7-7-7-7-7-7|
   ' ' ' ' ' ' ' ' ' ' ' ' ' ' ' ' ' ' ' ' ' ' ' ' '
e|-------------------------------------------------|
B|-------------------------------------------------|
G|-------------------------------------------------|
D|-------------------------------------------------|
A|-2-2-2-2-2-2-2-2-2-0-0-0-2-2-2-2-2-2-2-2-2-5-5-5-|
D|4-4-4-4-4-4-4-4-4-4-4-4-4-4-4-4-4-4-4-4-4-4-7-7-7|
  ' ' ' ' ' ' ' ' ' ' ' ' ' ' ' ' ' ' ' ' ' ' ' ' '
e|--------------------------------------------------|
B|--------------------------------------------------|
G|--------------------------------------------------|
D|--------------------------------------------------|
A|7-7-7-7-7-7-7-7-7-7-4-4-4-5-5-5-5-5-5-5-5-5-4-4-4-|
D|-7-7-7-7-7-7-7-7-7-7-7-7-7-7-7-7-7-7-7-7-7-7-7-7-7|
   ' ' ' ' ' ' ' ' ' ' ' ' ' ' ' ' ' ' ' ' ' ' ' ' '
Chorus:
e|-------------------------------------------------------|
B|-------------------------------------------------------|
G|-------------------------------------------------------|
D|-9-4-9-4-9-4-9-4-9-4-9-4-11-4-11-4-11-4-12-4-12-4-12-4-|
A|-------------------------------------------------------|
D|-------------------------------------------------------|

e|-----------------------------------------------|
B|-----------------------------------------------|
G|-----------------------------------------------|
D|9-4-9-4-9-4-9-4-9-4-9-4-7-2-7-2-7-2-7-2-7-2-7-2|
A|-----------------------------------------------|
D|-----------------------------------------------|

e|------------------------------------------------------|
B|------------------------------------------------------|
G|9-4-9-4-9-4-9-4-9-4-9-4-11-4-11-4-11-4-12-4-12-4-12-4-|
D|------------------------------------------------------|
A|------------------------------------------------------|
D|------------------------------------------------------|

e|-----------------------------------------------|
B|-----------------------------------------------|
G|-----------------------------------------------|
D|7-2-7-2-7-2-7-2-7-2-7-2-7-2-7-2-7-2-7-2-7-2-7-2|
A|-----------------------------------------------|
D|-----------------------------------------------|

e|-------------------------------------------------------|
B|-------------------------------------------------------|
G|-------------------------------------------------------|
D|-9-4-9-4-9-4-9-4-9-4-9-4-11-4-11-4-11-4-12-4-12-4-12-4-|
A|-------------------------------------------------------|
D|-------------------------------------------------------|

e|-----------------------------------------------|
B|-----------------------------------------------|
G|-----------------------------------------------|
D|9-4-9-4-9-4-9-4-9-4-9-4-7-2-7-2-7-2-7-2-7-2-7-2|
A|-----------------------------------------------|
D|-----------------------------------------------|

e|------------------------------------------------------|
B|------------------------------------------------------|
G|9-4-9-4-9-4-9-4-9-4-9-4-11-4-11-4-11-4-12-4-12-4-12-4-|
D|------------------------------------------------------|
A|------------------------------------------------------|
D|------------------------------------------------------|

e|-----------------------------------------------|
B|-----------------------------------------------|
G|-----------------------------------------------|
D|7-2-7-2-7-2-7-2-7-2-7-2-7-2-7-2-7-2-7-2-7-2-7-2|
A|-----------------------------------------------|
D|-----------------------------------------------|

Verse 2:
e|-----------------------------------------------|
B|-----------------------------------------------|
G|-----------------------------------------------|
D|-----------------------------------------------|
A|0-0-2-2-2-2-2-2-2-2-2-2-2-2-2-2-2-2-2-2-2444444|
D|0-0-2-2-2-2-2-2-2-2-2-2-2-2-2-2-2-2-2-2-2444444|
  ' '   '   '   '   '   '   '   '   '   '      
e|-----------------------------------------------|
B|-----------------------------------------------|
G|-----------------------------------------------|
D|-----------------------------------------------|
A|0-0-2-2-2-2-2-2-2-2-2-2-2-2-2-2-2-2-2-2-2444444|
D|0-0-2-2-2-2-2-2-2-2-2-2-2-2-2-2-2-2-2-2-2444444|
  ' '   '   '   '   '   '   '   '   '   '      
e|-----------------------------------------------|
B|-----------------------------------------------|
G|-----------------------------------------------|
D|-----------------------------------------------|
A|0-0-2-2-2-2-2-2-2-2-2-2-2-2-2-2-2-2-2-2-2444444|
D|0-0-2-2-2-2-2-2-2-2-2-2-2-2-2-2-2-2-2-2-2444444|
  ' '   '   '   '   '   '   '   '   '   '      
e|-----------------------------------------------|
B|-----------------------------------------------|
G|-----------------------------------------------|
D|-----------------------------------------------|
A|0-0-2-2-2-2-2-2-2-2-2-2-2-2-2-2-2-2-2-2-2444444|
D|0-0-2-2-2-2-2-2-2-2-2-2-2-2-2-2-2-2-2-2-2444444|
  ' '   '   '   '   '   '   '   '   '   '      
e|-----------------------------------------------|
B|-----------------------------------------------|
G|-----------------------------------------------|
D|-----------------------------------------------|
A|0-0-2-2-2-2-2-2-2-2-2-2-2-2-2-2-2-2-2-2-2444444|
D|0-0-2-2-2-2-2-2-2-2-2-2-2-2-2-2-2-2-2-2-2444444|
  ' '   '   '   '   '   '   '   '   '   '      
e|-----------------------------------------------|
B|-----------------------------------------------|
G|-----------------------------------------------|
D|-----------------------------------------------|
A|0-0-2-2-2-2-2-2-2-2-2-2-2-2-2-2-2-2-2-2-2444444|
D|0-0-2-2-2-2-2-2-2-2-2-2-2-2-2-2-2-2-2-2-2444444|
  ' '   '   '   '   '   '   '   '   '   '      
Chorus 2:
e|---------------------------------------------------|
B|---------------------------------------------------|
G|------------------7--7-7-7-7--7-7-7-11--11-11-11-11|
D|9--9-9-9-9--9-9-9----------------------------------|
A|---------------------------------------------------|
D|---------------------------------------------------|

e|--------------------------------------------------------------------|
B|--------------------------------------------------------------------|
G|--11-11-11-12--12-12-12-11-11-11-7-7-7------------------------------|
D|---------------------------------------11--11-11-11-11--11-11-11-7--|
A|--------------------------------------------------------------------|
D|--------------------------------------------------------------------|

e|-------------------------------------------------------------------------|
B|-------------------------------------------------------------------------|
G|-------------------------------------------------------------------------|
D|7-7-7-7--7-7-7-2--2-2-2-2--2-2-2-2--2-2-2-2-2-2-2-2-2-5--5-5-5-5--5-5-5-7|
A|-------------------------------------------------------------------------|
D|-------------------------------------------------------------------------|

e|--------------------------------------------|
B|--------------------------------------------|
G|--------------------------------------------|
D|--7-7-7-7--7-7-7-12--12-12-12-12--12-12-12-9|
A|--------------------------------------------|
D|--------------------------------------------|

e|--------------------------------------------------------|
B|--------------------------------------------------------|
G|--------------------------------------------------------|
D|9-9-9-9-9-9-9-9-9-9-9-9-9-9-9-9-9-9-9-9-9-9-9-9-9-9-9-9-|
A|--------------------------------------------------------|
D|--------------------------------------------------------|

e|-----------------------------------------------------------------------|
B|-----------------------------------------------------------------------|
G|-----------------------------------------------------------------------|
D|11-11-11-11-11-11-11-11-11-11-11-11-11-11-11-11-11-11-11-11-11-11-11-11|
A|-----------------------------------------------------------------------|
D|-----------------------------------------------------------------------|

e|---------------------------------------------------|
B|---------------------------------------------------|
G|------------------7--7-7-7-7--7-7-7-11--11-11-11-11|
D|9--9-9-9-9--9-9-9----------------------------------|
A|---------------------------------------------------|
D|---------------------------------------------------|

e|--------------------------------------------------------------------|
B|--------------------------------------------------------------------|
G|--11-11-11-12--12-12-12-11-11-11-7-7-7------------------------------|
D|---------------------------------------11--11-11-11-11--11-11-11-7--|
A|--------------------------------------------------------------------|
D|--------------------------------------------------------------------|

e|-------------------------------------------------------------------------|
B|-------------------------------------------------------------------------|
G|-------------------------------------------------------------------------|
D|7-7-7-7--7-7-7-2--2-2-2-2--2-2-2-2--2-2-2-2-2-2-2-2-2-5--5-5-5-5--5-5-5-7|
A|-------------------------------------------------------------------------|
D|-------------------------------------------------------------------------|

e|--------------------------------------------|
B|--------------------------------------------|
G|--------------------------------------------|
D|--7-7-7-7--7-7-7-12--12-12-12-12--12-12-12-9|
A|--------------------------------------------|
D|--------------------------------------------|

e|--------------------------------------------------------|
B|--------------------------------------------------------|
G|--------------------------------------------------------|
D|9-9-9-9-9-9-9-9-9-9-9-9-9-9-9-9-9-9-9-9-9-9-9-9-9-9-9-9-|
A|--------------------------------------------------------|
D|--------------------------------------------------------|

e|-----------------------------------------------------------------------|
B|-----------------------------------------------------------------------|
G|-----------------------------------------------------------------------|
D|11-11-11-11-11-11-11-11-11-11-11-11-11-11-11-11-11-11-11-11-11-11-11-11|
A|-----------------------------------------------------------------------|
D|-----------------------------------------------------------------------|

Verse 3:
e|---------------------------------------------|
B|---------------------------------------------|
G|---------------------------------------------|
D|---------------------------------------------|
A|2--2-0-0-0-0-2--2-0-0-0-0-2--2-0-0-0-0-444444|
D|2--2-0-0-0-0-2--2-0-0-0-0-2--2-0-0-0-0-444444|
     ' ' ' ' '    ' ' ' ' '    ' ' ' ' ' 
e|---------------------------------------------|
B|---------------------------------------------|
G|---------------------------------------------|
D|---------------------------------------------|
A|2--2-0-0-0-0-2--2-0-0-0-0-2--2-0-0-0-0-444444|
D|2--2-0-0-0-0-2--2-0-0-0-0-2--2-0-0-0-0-444444|
     ' ' ' ' '    ' ' ' ' '    ' ' ' ' ' 
e|---------------------------------------------|
B|---------------------------------------------|
G|---------------------------------------------|
D|---------------------------------------------|
A|2--2-0-0-0-0-2--2-0-0-0-0-2--2-0-0-0-0-444444|
D|2--2-0-0-0-0-2--2-0-0-0-0-2--2-0-0-0-0-444444|
     ' ' ' ' '    ' ' ' ' '    ' ' ' ' ' 
e|---------------------------------------------|
B|---------------------------------------------|
G|---------------------------------------------|
D|---------------------------------------------|
A|2--2-0-0-0-0-2--2-0-0-0-0-2--2-0-0-0-0-444444|
D|2--2-0-0-0-0-2--2-0-0-0-0-2--2-0-0-0-0-444444|
     ' ' ' ' '    ' ' ' ' '    ' ' ' ' ' 
e|---------------------------------------------|
B|---------------------------------------------|
G|---------------------------------------------|
D|---------------------------------------------|
A|2--2-0-0-0-0-2--2-0-0-0-0-2--2-0-0-0-0-444444|
D|2--2-0-0-0-0-2--2-0-0-0-0-2--2-0-0-0-0-444444|
     ' ' ' ' '    ' ' ' ' '    ' ' ' ' ' 
e|---------------------------------------------|
B|---------------------------------------------|
G|---------------------------------------------|
D|---------------------------------------------|
A|2--2-0-0-0-0-2--2-0-0-0-0-2--2-0-0-0-0-444444|
D|2--2-0-0-0-0-2--2-0-0-0-0-2--2-0-0-0-0-444444|
     ' ' ' ' '    ' ' ' ' '    ' ' ' ' ' 
Bridge:
Trills...                      4x
e|----------------------------|
B|----------------------------|
G|----------------------------|
D|11-9----7-4-9---7-2----5-4--|
A|----------------------------|
D|----------------------------|

Chorus 3:
e|---------------------------------------------------|
B|---------------------------------------------------|
G|------------------7--7-7-7-7--7-7-7-11--11-11-11-11|
D|9--9-9-9-9--9-9-9----------------------------------|
A|---------------------------------------------------|
D|---------------------------------------------------|

e|--------------------------------------------------------------------|
B|--------------------------------------------------------------------|
G|--11-11-11-12--12-12-12-11-11-11-7-7-7------------------------------|
D|---------------------------------------11--11-11-11-11--11-11-11-7--|
A|--------------------------------------------------------------------|
D|--------------------------------------------------------------------|

e|-------------------------------------------------------------------------|
B|-------------------------------------------------------------------------|
G|-------------------------------------------------------------------------|
D|7-7-7-7--7-7-7-2--2-2-2-2--2-2-2-2--2-2-2-2-2-2-2-2-2-5--5-5-5-5--5-5-5-7|
A|-------------------------------------------------------------------------|
D|-------------------------------------------------------------------------|

e|--------------------------------------------|
B|--------------------------------------------|
G|--------------------------------------------|
D|--7-7-7-7--7-7-7-12--12-12-12-12--12-12-12-9|
A|--------------------------------------------|
D|--------------------------------------------|

e|--------------------------------------------------------|
B|--------------------------------------------------------|
G|--------------------------------------------------------|
D|9-9-9-9-9-9-9-9-9-9-9-9-9-9-9-9-9-9-9-9-9-9-9-9-9-9-9-9-|
A|--------------------------------------------------------|
D|--------------------------------------------------------|

e|-----------------------------------------------------------------------|
B|-----------------------------------------------------------------------|
G|-----------------------------------------------------------------------|
D|11-11-11-11-11-11-11-11-11-11-11-11-11-11-11-11-11-11-11-11-11-11-11-11|
A|-----------------------------------------------------------------------|
D|-----------------------------------------------------------------------|

e|---------------------------------------------------|
B|---------------------------------------------------|
G|------------------7--7-7-7-7--7-7-7-11--11-11-11-11|
D|9--9-9-9-9--9-9-9----------------------------------|
A|---------------------------------------------------|
D|---------------------------------------------------|

e|--------------------------------------------------------------------|
B|--------------------------------------------------------------------|
G|--11-11-11-12--12-12-12-11-11-11-7-7-7------------------------------|
D|---------------------------------------11--11-11-11-11--11-11-11-7--|
A|--------------------------------------------------------------------|
D|--------------------------------------------------------------------|

e|-------------------------------------------------------------------------|
B|-------------------------------------------------------------------------|
G|-------------------------------------------------------------------------|
D|7-7-7-7--7-7-7-2--2-2-2-2--2-2-2-2--2-2-2-2-2-2-2-2-2-5--5-5-5-5--5-5-5-7|
A|-------------------------------------------------------------------------|
D|-------------------------------------------------------------------------|

e|--------------------------------------------|
B|--------------------------------------------|
G|--------------------------------------------|
D|--7-7-7-7--7-7-7-12--12-12-12-12--12-12-12-9|
A|--------------------------------------------|
D|--------------------------------------------|

e|--------------------------------------------------------|
B|--------------------------------------------------------|
G|--------------------------------------------------------|
D|9-9-9-9-9-9-9-9-9-9-9-9-9-9-9-9-9-9-9-9-9-9-9-9-9-9-9-9-|
A|--------------------------------------------------------|
D|--------------------------------------------------------|

e|-----------------------------------------------------------------------|
B|-----------------------------------------------------------------------|
G|-----------------------------------------------------------------------|
D|11-11-11-11-11-11-11-11-11-11-11-11-11-11-11-11-11-11-11-11-11-11-11-11|
A|-----------------------------------------------------------------------|
D|-----------------------------------------------------------------------|

Solo:
e|-15-12--------12-------------------------------------|
B|--------15-12-----15-----12-10---10-8--5-8-5---7--10-|
G|---------------------14------------------------------|
D|-----------------------------------------------------|
A|-----------------------------------------------------|
D|-----------------------------------------------------|
comments
print report bad tab
8 comments total. Showing first comments.
0 reply
Leoneath wrote on January 10 2009, 10:32 pm

OK this is my version of the outro of course you have to know the timing for each corresponding note. This is my first time i ever really corrected or tabbed something so yea.......

e|-15-12--------12-------------------------------------|
B|--------15-12-----15-----12-10---10-8--5-8-5---7--10-|
G|---------------------14------------------------------|
D|-----------------------------------------------------|
A|-----------------------------------------------------|
D|-----------------------------------------------------|

e|--------------------------------------------|
B|--------------------------------------------|
G|--------------------------------------------|
D|--------------------------------------------|
A|--------------------------------------------|
D|--------------------------------------------|

0 reply
Pariah156 wrote on January 11 2009, 03:31 pm

well it sounds better than my way, so, thanks, ill put that up on here

0 reply
Leoneath wrote on January 16 2009, 09:07 pm

you know what did nevermind that sounds like crap. I will re do it

I want to post or [tab]
guest
You may want to rate the tab now too:
select rating
Please do not post tabs as comments. Select "correction" instead!