Oops, an error
Loading. Please wait.

Gods Of War Arise Tab

ver1
ver1

Whole song

Interactive

More versions @911Tabs.com
8,022 views 3 this week
5 commentsread comments
1 2 3 4 5
worth learning
x 7
Autoscroll
+/-
esc
set tempo
stop
Contributor
Hey! There's an official Ultimate Guitar app which is ideal
for learning songs when you're away from computer. Get the app
WARNING: You are trying to view
                                    content from Ultimate-Guitar.com
                                    in an unauthorized application,
                                    which is prohibited.

                                    Please use an official Ultimate
                                    Guitar Tabs application for iPhone,
                                    iPad or Android to access legitimate
                                    chords, guitar, bass, and drum tabs
                                    from Ultimate-Guitar.com database.

                                    Type "ultimate guitar tabs" in Apple
                                    App Store's or Android Market's
                                    search to find the application.
-------------------------------------------------------------------------------
                            God of War Arise - Amon Amarth
-------------------------------------------------------------------------------
Tabbed by:QAAS
Email:hangar@hotmail.it

Tuning:7th strings standard


  Intro - guitar 1
e|-----------------------|  |
b|-----------------------|  |
G|-----------------------|  |
D|-----------------------|  |
A|--2--------------------|  |
E|--2--let-ring----------|  |
B|--0--------------------|  |
 |guitar 2                  |x 2
e|-----------------------|  |
b|-----------------------|  |
G|-----------------------|  |
D|-----------------------|  |
A|-----------4-/5-5-5-4--|  |
E|-----------------------|  |
B|-----------------------|  |


  riff 1 - guitar 1
e|---------------------------------------------------------------------|
b|---------------------------------------------------------------------|
G|---------------------------------------------------------------------|
D|---------------------------------------------------------------------|
A|---------------------------------------------------------------------|
E|--2-2-2-2-2-2-2-2-2-2-2-2-2-2-2-2-2-2-2-2-2-2-2-2-2-2-2-2-2-2-2-2-2--|
B|--0-0-0-0-0-0-0-0-0-0-0-0-0-0-0-0-0-0-0-0-0-0-0-0-0-0-0-0-0-0-0-0-0--|
 |guitar 2                                                             |
e|---------------------------------------------------------------------|
b|---------------------------------------------------------------------|
G|---------------------------------------------------------------------|
D|-----4--2-4----------------------------4--2-4-------------5--5--4-2--|
A|------------------------5--5--4-2------------------------------------|
E|---------------------------------------------------------------------|
B|---------------------------------------------------------------------|
                                                                       |
                                                                       |
e|---------------------------------------------------------------------|
b|---------------------------------------------------------------------|
G|---------------------------------------------------------------------|
D|------------------------------------------------------------7-7-7-7--|
A|--2-2-2-2-2-2-2-2-2-2-2-2-2-2-2-2-2-5-5-5-5-5-5-5-5-4-4-4-4-5-5-5-5--|
E|--0-0-0-0-0-0-0-0-0-0-0-0-0-0-0-0-0-3-3-3-3-3-3-3-3-2-2-2-2----------|
B|---------------------------------------------------------------------|
 |                                                                     |
e|---------------------------------------------------------------------|
b|---------------------------------------------------------------------|
G|---------------------------------------------------------------------|
D|-----2----2-------------------------------------------------7-7-7-7--|
A|--------5---------------5--5--4-2---5-5-5-5-5-5-5-5-4-4-4-4-5-5-5-5--|
E|------------------------------------3-3-3-3-3-3-3-3-2-2-2-2----------|
B|---------------------------------------------------------------------|

  verse - guitar 1&2                                      |
e|----------------------------------------------------|   |
b|----------------------------------------------------|   |
G|----------------------------------------------------|   |
D|----------------------------------------------------|   |
A|---------2---------2-----2--------2-----4-/5-5-5-4--|   |
E|--2--2-2-2-2-2-2-2-2-2-2-2-2--2-2-2-2-2-------------|   |
B|--0--0-0-0-0-0-0-0-0-0-0-0-0--0-0-0-0-0-------------|   |
p.m..  . .   . . . .   . .   .  . .   . .             |   |x 4
                                                      |   |
e|----------------------------------------------------|   |
b|----------------------------------------------------|   |
G|----------------------------------------------------|   |
D|---------5---------5-----5--------5-----------------|   |
A|--5--5-5-5-5-5-5-5-5-5-5-5-5--5-5-5-5-5-5p4-2--4-0--|   |
E|--3--3-3-3-3-3-3-3-3-3-3-3-3--3-3-3-3-3-------------|   |
B|----------------------------------------------------|   |
p.m..  . .   . . . .   . .   .  . .   . .                 |

  riff 1 - guitar 1                                                       |
e|---------------------------------------------------------------------|  |
b|---------------------------------------------------------------------|  |
G|---------------------------------------------------------------------|  |
D|---------------------------------------------------------------------|  |
A|---------------------------------------------------------------------|  |
E|--2-2-2-2-2-2-2-2-2-2-2-2-2-2-2-2-2-2-2-2-2-2-2-2-2-2-2-2-2-2-2-2-2--|  |
B|--0-0-0-0-0-0-0-0-0-0-0-0-0-0-0-0-0-0-0-0-0-0-0-0-0-0-0-0-0-0-0-0-0--|  |
 |guitar 2                                                             |  |
e|---------------------------------------------------------------------|  |
b|---------------------------------------------------------------------|  |
G|---------------------------------------------------------------------|  |
D|-----4--2-4----------------------------4--2-4-------------5--5--4-2--|  |
A|------------------------5--5--4-2------------------------------------|  |
E|---------------------------------------------------------------------|  |
B|---------------------------------------------------------------------|  |
                                                                       |  |x2
                                                                       |  |
e|---------------------------------------------------------------------|  |
b|---------------------------------------------------------------------|  |
G|---------------------------------------------------------------------|  |
D|------------------------------------------------------------7-7-7-7--|  |
A|--2-2-2-2-2-2-2-2-2-2-2-2-2-2-2-2-2-5-5-5-5-5-5-5-5-4-4-4-4-5-5-5-5--|  |
E|--0-0-0-0-0-0-0-0-0-0-0-0-0-0-0-0-0-3-3-3-3-3-3-3-3-2-2-2-2----------|  |
B|---------------------------------------------------------------------|  |
 |                                                                     |  |
e|---------------------------------------------------------------------|  |
b|---------------------------------------------------------------------|  |
G|---------------------------------------------------------------------|  |
D|-----2----2-------------------------------------------------7-7-7-7--|  |
A|--------5---------------5--5--4-2---5-5-5-5-5-5-5-5-4-4-4-4-5-5-5-5--|  |
E|------------------------------------3-3-3-3-3-3-3-3-2-2-2-2----------|  |
B|---------------------------------------------------------------------|  |

  riff 2 - guitar 1 - 16th - listen for timing
e|--------------------|--------------------|  |
b|--------------------|--------------------|  |
G|--------------------|--------------------|  |
D|--------------------|--------------------|  |
A|--2-5---4/7--5/4----|--2-5---4/7--5/4----|  |
E|-----------------5--|-----------------5--|  |
B|--------------------|--------------------|  |
 |guitar 2 - 16th - listen for timing      |  |
e|--------------------|--------------------|  |
B|--------------------|--------------------|  |
G|--------------------|--------------------|  |
D|--------------------|--------------------|  |
A|--------------------|--------------------|  |
E|--------------------|--3-----------------|  |
B|--0-----------------|--------------------|  |
                                           |  |x 3
                                           |  |
e|-----------------------------------------|  |
b|-----------------------------------------|  |
G|-----------------------------------------|  |
D|-----------------------------------------|  |
A|--7--5-7---9--10--9------7----5----------|  |
E|---------------------------------5-------|  |
B|-----------------------------------------|  |
 |                                         |  |
e|-----------------------------------------|  |
b|-----------------------------------------|  |
G|-----------------------------------------|  |
D|-----------------------------------------|  |
A|-----------------------------------------|  |
E|--5---------------2------5---------------|  |
B|------------------------------5----------|  |

  verse - guitar 1&2                                      |
e|----------------------------------------------------|   |
b|----------------------------------------------------|   |
G|----------------------------------------------------|   |
D|----------------------------------------------------|   |
A|---------2---------2-----2--------2-----4-/5-5-5-4--|   |
E|--2--2-2-2-2-2-2-2-2-2-2-2-2--2-2-2-2-2-------------|   |
B|--0--0-0-0-0-0-0-0-0-0-0-0-0--0-0-0-0-0-------------|   |
p.m..  . .   . . . .   . .   .  . .   . .             |   |x 4
                                                      |   |
e|----------------------------------------------------|   |
b|----------------------------------------------------|   |
G|----------------------------------------------------|   |
D|---------5---------5-----5--------5-----------------|   |
A|--5--5-5-5-5-5-5-5-5-5-5-5-5--5-5-5-5-5-5p4-2--4-0--|   |
E|--3--3-3-3-3-3-3-3-3-3-3-3-3--3-3-3-3-3-------------|   |
B|----------------------------------------------------|   |
p.m..  . .   . . . .   . .   .  . .   . .                 |

  Intro - guitar 1
e|-----------------------|  |
b|-----------------------|  |
G|-----------------------|  |
D|-----------------------|  |
A|--2--------------------|  |
E|--2--let-ring----------|  |
B|--0--------------------|  |
 |guitar 2                  |x 3
e|-----------------------|  |
b|-----------------------|  |
G|-----------------------|  |
D|-----------------------|  |
A|-----------4-/5-5-5-4--|  |
E|-----------------------|  |
B|-----------------------|  |


  riff 2 - guitar 1 - 8th - listen for timing
e|--------------------|--------------------|  |
b|--------------------|--------------------|  |
G|--------------------|--------------------|  |
D|--------------------|--------------------|  |
A|--2-5---4/7--5/4----|--2-5---4/7--5/4----|  |
E|-----------------5--|-----------------5--|  |
B|--------------------|--------------------|  |
 |guitar 2 - - listen for timing           |  |
e|--------------------|--------------------|  |
B|--------------------|--------------------|  |
G|--------------------|--------------------|  |
D|--------------------|--5555555555555555--|  |
A|--2222222222222222--|--5555555555555555--|  |
E|--2222222222222222--|--3333333333333333--|  |
B|--0000000000000000--|--------------------|  |
p.m.. . . . . . . .      . . . . . . . .   |  |
                                           |  |x 4
                                           |  |
e|-----------------------------------------|  |
b|-----------------------------------------|  |
G|-----------------------------------------|  |
D|-----------------------------------------|  |
A|--7--5-7---9--10--9-------7----5---------|  |
E|---------------------------------5-------|  |
B|-----------------------------------------|  |
 |                                         |  |
e|-----------------------------------------|  |
b|-----------------------------------------|  |
G|-----------------------------------------|  |
D|--7777777777777777444444447777-----------|  |
A|--77777777777777774444444477777777-------|  |
E|--55555555555555552222222255557777-------|  |
B|------------------------------5555-------|  |
p.m.. . . . . . . . . . . . . . . .


  solo - guitar 1 - slow - play with feel
e|-----------------------------------------|
b|-----------------------------------------|
G|-----------------------------------------|
D|--12-11-10-----11-12-11-9----------------|
A|-----------9v----------------9-7v--------|
E|-----------------------------------------|
B|-----------------------------------------|
 |                                         |
e|-----------------------------------------|
b|-----------------------------------------|
G|-----------------------------------------|
D|-------7---------------------7-----------|
A|-10v-------10-9-7--7h9-9p7-9---9v--------|
E|-----------------------------------------|
B|-----------------------------------------|
 |                                         |
e|-----------------------------------------|
b|-----------------------------------------|
G|----------------------------9+---9--9p7h9|
D|--12-11-9-11-/12x-9v--11-12---12---------|
A|-----------------------------------------|
E|-----------------------------------------|
B|-----------------------------------------|
 |                                         |
e|-----------------------------------------|
b|---15+------------------------------10---|
G|---------12v-14-12-11-9-9h11-11p9-11--11-|
D|-----------------------------------------|
A|-----------------------------------------|
E|-----------------------------------------|
B|-----------------------------------------|
 |
 |guitar 2 - under solo - 8th - listen for timing
e|--------------------------------------------------------------------------------|
b|--------------------------------------------------------------------------------|
G|--------------------------------------------------------------------------------|
D|--------------------------------------------------------------------------------|x2
A|--9-------------------7------------------5-------------------4------------------|
E|--7-------------------5------------------3-------------------2------------------|
B|--------------------------------------------------------------------------------|
 |
 |guitar 3  - under solo - listen for timing
e|--------------------------------------------------------------------------------|
b|--------------------------------------------------------------------------------|
G|--------------------------------------------------------------------------------|
D|-----4--2-4---4--2-4-----4--2-4---4--2-4----2----2---2----2---------------------|x2
A|-----------------------------------------------5--------5------5-5p4p0---5--4-5-|
E|----------------------------------------------------------------------2---------|
B|--------------------------------------------------------------------------------|

  riff 2 - guitar 1 - 8th - listen for timing
e|--------------------|--------------------|  |
b|--------------------|--------------------|  |
G|--------------------|--------------------|  |
D|--------------------|--------------------|  |
A|--2-5---4/7--5/4----|--2-5---4/7--5/4----|  |
E|-----------------5--|-----------------5--|  |
B|--------------------|--------------------|  |
 |guitar 2 - listen for timing             |  |
e|--------------------|--------------------|  |
B|--------------------|--------------------|  |
G|--------------------|--------------------|  |
D|--------------------|--5555555555555555--|  |
A|--2222222222222222--|--5555555555555555--|  |
E|--2222222222222222--|--3333333333333333--|  |
B|--0000000000000000--|--------------------|  |
p.m.. . . . . . . .      . . . . . . . .   |  |
                                           |  | until the end
                                           |  |
e|-----------------------------------------|  |
b|-----------------------------------------|  |
G|-----------------------------------------|  |
D|-----------------------------------------|  |
A|--7--5-7---9--10--9-------7----5---------|  |
E|---------------------------------5-------|  |
B|-----------------------------------------|  |
 |                                         |  |
e|-----------------------------------------|  |
b|-----------------------------------------|  |
G|-----------------------------------------|  |
D|--7777777777777777444444447777-----------|  |
A|--77777777777777774444444477777777-------|  |
E|--55555555555555552222222255557777-------|  |
B|------------------------------5555-------|  |
p.m.. . . . . . . . . . . . . . . .  


| /  slide up
| \  slide down
| h  hammer-on
| p  pull-off
| ~  vibrato
| +  harmonic
| x  Mute note
===============================================================================
comments
print report bad tab
5 comments total. Showing first comments.
0 reply
Tyler Durden wrote on May 16 2009, 12:45 pm

nicely done, can be played on a 6, just drop her down to B Std with some good strings

0 reply
shanksxy wrote on June 28 2009, 12:32 pm

this is a horrible tab for Gods of war arise. you ****ed up almost everything

0 reply
right88wing wrote on June 28 2009, 12:47 pm

this is pretty ****ing bad

I want to post or [tab]
guest
You may want to rate the tab now too:
select rating
Please do not post tabs as comments. Select "correction" instead!