Oops, an error
Loading. Please wait.

Live Without Regrets Tab

ver1
ver1

Whole song

Interactive

More versions @911Tabs.com
3,053 views 24 this week
no commentswrite comment
1 2 3 4 5
excellent!
x 2
add to favorites launch autoscroll
font size
0
reset
Autoscroll
+/-
esc
set tempo
stop
Contributor
Difficulty
Tuning
intermediate
B E A D F# B
WARNING: You are trying to view
                                    content from Ultimate-Guitar.com
                                    in an unauthorized application,
                                    which is prohibited.

                                    Please use an official Ultimate
                                    Guitar Tabs application for iPhone,
                                    iPad or Android to access legitimate
                                    chords, guitar, bass, and drum tabs
                                    from Ultimate-Guitar.com database.

                                    Type "ultimate guitar tabs" in Apple
                                    App Store's or Android Market's
                                    search to find the application.
                       Live Without Regrets                          


                                                           Amon Amarth



Duration Legend
---------------
W - whole
H - half
Q - quarter
E - 8th
S - 16th
T - 32nd
X - 64th
. - note dotted
|-n-|  - n-tuplets


Tablature Legend
----------------
L - tied note
x - dead note
g - grace note
(n) - ghost note
> - accentuded note
NH - natural harmonic
AH - artificial harmonic
TH - tapped harmonic
SH - semi harmonic
PH - pitch harmonic
h - hammer on
p - pull off
b - bend
br - bendRelease
pb - preBend
pbr - preBendRelease
brb - bendReleaseBend
\n/ - tremolo bar dip
\n - tremolo bar dive
-/n - tremolo bar Release up
/n\ - tremolo bar inverted dip
/n - tremolo bar return
-\n - tremolo bar Release down
S - shift slide
s - legato slide
/ -  slide into from below or out of upwards
\ -  slide into from above or out of downwards
~ - vibrato
W - wide vibrato
tr - trill
TP - tremolo picking
T - tapping
S - slap
P - pop
< - fade in
^ - brush up
v - brush down







Git 1 



      S S S S S S S S S S S S    S S S S S S S S S S S S  
B ||--------------------------|--------------------------|
F#||--------------------------|--------------------------|
D ||--------------------------|--------------------------|
A ||--9-9-9-9-9-9-------------|--------------------------|
E ||--------------------------|--9-9-9-9-9-9-------------|
B ||--------------7-7-7-7-7-7-|--------------7-7-7-7-7-7-|


  S S S S S S  S  S  S  S S S     S  S  S  S  S  S S S S S S S  
------------------------------|--------------------------------|
------------------------------|--------------------------------|
------------------------------|--------------------------------|
--9-9-9-9-9-9-----------------|--------------------------------|
--------------------------9-9-|--10-10-10-10-10-10-9-9-9-9-9-9-|
--------------10-10-10-10-----|--------------------------------|


  S S S S S S S S S S S S    S S S S S S S S S S S S  
--------------------------|--------------------------|
--------------------------|--------------------------|
--------------------------|--------------------------|
--9-9-9-9-9-9-------------|--------------------------|
--------------------------|--9-9-9-9-9-9-------------|
--------------7-7-7-7-7-7-|--------------7-7-7-7-7-7-|


  S S S S S S  S  S  S  S S S    S S S S S S S S S S S S  
------------------------------|--------------------------|
------------------------------|--------------------------|
------------------------------|--------------------------|
--9-9-9-9-9-9-----------------|--7-7-7-7-7-7-7-7-7-7-7-7-|
--------------------------9-9-|--------------------------|
--------------10-10-10-10-----|--------------------------|


  S S S S S S S S S S S S    S S S S S S S S S S S S  
--------------------------|--------------------------|
--------------------------|--------------------------|
--------------------------|--------------------------|
--9-9-9-9-9-9-------------|--------------------------|
--------------------------|--9-9-9-9-9-9-------------|
--------------7-7-7-7-7-7-|--------------7-7-7-7-7-7-|


  S S S S S S  S  S  S  S S S     S  S  S  S  S  S S S S S S S  
------------------------------|--------------------------------|
------------------------------|--------------------------------|
------------------------------|--------------------------------|
--9-9-9-9-9-9-----------------|--------------------------------|
--------------------------9-9-|--10-10-10-10-10-10-9-9-9-9-9-9-|
--------------10-10-10-10-----|--------------------------------|


  S S S S S S S S S S S S    S S S S S S S S S S S S  
--------------------------|--------------------------|
--------------------------|--------------------------|
--------------------------|--------------------------|
--9-9-9-9-9-9-------------|--------------------------|
--------------------------|--9-9-9-9-9-9-------------|
--------------7-7-7-7-7-7-|--------------7-7-7-7-7-7-|


  S S S S S S  S  S  S  S S S    S S S S S S S S S S S S  
------------------------------|--------------------------|
------------------------------|--------------------------|
------------------------------|--------------------------|
--9-9-9-9-9-9-----------------|--7-7-7-7-7-7-7-7-7-7-7-7-|
--------------------------9-9-|--------------------------|
--------------10-10-10-10-----|--------------------------|


     PM PM PM    PM PM PM       PM PM PM    PM PM PM  
  E  S  S  E  E  S  S  E     E  S  S  E  E  S  S  E   
--------------------------|--------------------------|
--------------------------|--------------------------|
--------------------------|--------------------------|
--9-----------9-----------|--------------------------|
--------------------------|--9-----------9-----------|
-----7--7--7-----7--7--7--|-----7--7--7-----7--7--7--|


      PM PM PM     PM PM PM                         
   E  S  S  E   E  S  S  E      E  E   E  Q     E   
----------------------------|----------------------|
----------------------------|----------------------|
----------------------------|----------------------|
----------------------------|----------------------|
--10-----------10-----------|------9--10--9--------|
------7--7--7------7--7--7--|--10--------------10--|


     PM PM PM    PM PM PM       PM PM PM    PM PM PM  
  E  S  S  E  E  S  S  E     E  S  S  E  E  S  S  E   
--------------------------|--------------------------|
--------------------------|--------------------------|
--------------------------|--------------------------|
--9-----------9-----------|--------------------------|
--------------------------|--9-----------9-----------|
-----7--7--7-----7--7--7--|-----7--7--7-----7--7--7--|


      PM PM PM     PM PM PM                         
   E  S  S  E   E  S  S  E      E  E  E   E  E  E   
----------------------------|----------------------|
----------------------------|----------------------|
----------------------------|----------------------|
----------------------------|----------------------|
--10-----------10-----------|--10--9--7--10--9--7--|
------7--7--7------7--7--7--|----------------------|


     PM PM PM    PM PM PM       PM PM PM    PM PM PM  
  E  S  S  E  E  S  S  E     E  S  S  E  E  S  S  E   
--------------------------|--------------------------|
--------------------------|--------------------------|
--------------------------|--------------------------|
--9-----------9-----------|--------------------------|
--------------------------|--9-----------9-----------|
-----7--7--7-----7--7--7--|-----7--7--7-----7--7--7--|


      PM PM PM     PM PM PM                         
   E  S  S  E   E  S  S  E      E  E   E  Q     E   
----------------------------|----------------------|
----------------------------|----------------------|
----------------------------|----------------------|
----------------------------|----------------------|
--10-----------10-----------|------9--10--9--------|
------7--7--7------7--7--7--|--10--------------10--|


     PM PM PM    PM PM PM       PM PM PM    PM PM PM  
  E  S  S  E  E  S  S  E     E  S  S  E  E  S  S  E   
--------------------------|--------------------------|
--------------------------|--------------------------|
--------------------------|--------------------------|
--9-----------9-----------|--------------------------|
--------------------------|--9-----------9-----------|
-----7--7--7-----7--7--7--|-----7--7--7-----7--7--7--|


      PM PM PM     PM PM PM                         
   E  S  S  E   E  S  S  E      E  E  E   E  E  E   
----------------------------|----------------------|
----------------------------|----------------------|
----------------------------|----------------------|
----------------------------|----------------------|
--10-----------10-----------|--10--9--7--10--9--7--|
------7--7--7------7--7--7--|----------------------|


     PM PM PM    PM PM PM       PM PM PM    PM PM PM  
  E  S  S  E  E  S  S  E     E  S  S  E  E  S  S  E   
--------------------------|--------------------------|
--------------------------|--------------------------|
--------------------------|--------------------------|
--9-----------9-----------|--------------------------|
--------------------------|--9-----------9-----------|
-----7--7--7-----7--7--7--|-----7--7--7-----7--7--7--|


      PM PM PM     PM PM PM                         
   E  S  S  E   E  S  S  E      E  E   E  Q     E   
----------------------------|----------------------|
----------------------------|----------------------|
----------------------------|----------------------|
----------------------------|----------------------|
--10-----------10-----------|------9--10--9--------|
------7--7--7------7--7--7--|--10--------------10--|


     PM PM PM    PM PM PM       PM PM PM    PM PM PM  
  E  S  S  E  E  S  S  E     E  S  S  E  E  S  S  E   
--------------------------|--------------------------|
--------------------------|--------------------------|
--------------------------|--------------------------|
--9-----------9-----------|--------------------------|
--------------------------|--9-----------9-----------|
-----7--7--7-----7--7--7--|-----7--7--7-----7--7--7--|


      PM PM PM     PM PM PM                         
   E  S  S  E   E  S  S  E      E  E  E   E  E  E   
----------------------------|----------------------|
----------------------------|----------------------|
----------------------------|----------------------|
----------------------------|----------------------|
--10-----------10-----------|--10--9--7--10--9--7--|
------7--7--7------7--7--7--|----------------------|


     PM PM PM    PM PM PM       PM PM PM    PM PM PM  
  E  S  S  E  E  S  S  E     E  S  S  E  E  S  S  E   
--------------------------|--------------------------|
--------------------------|--------------------------|
--------------------------|--------------------------|
--9-----------9-----------|--------------------------|
--------------------------|--9-----------9-----------|
-----7--7--7-----7--7--7--|-----7--7--7-----7--7--7--|


      PM PM PM     PM PM PM                         
   E  S  S  E   E  S  S  E      E  E   E  Q     E   
----------------------------|----------------------|
----------------------------|----------------------|
----------------------------|----------------------|
----------------------------|----------------------|
--10-----------10-----------|------9--10--9--------|
------7--7--7------7--7--7--|--10--------------10--|


     PM PM PM    PM PM PM       PM PM PM    PM PM PM  
  E  S  S  E  E  S  S  E     E  S  S  E  E  S  S  E   
--------------------------|--------------------------|
--------------------------|--------------------------|
--------------------------|--------------------------|
--9-----------9-----------|--------------------------|
--------------------------|--9-----------9-----------|
-----7--7--7-----7--7--7--|-----7--7--7-----7--7--7--|


      PM PM PM     PM PM PM                         
   E  S  S  E   E  S  S  E      E  E  E   E  E  E   
----------------------------|----------------------|
----------------------------|----------------------|
----------------------------|----------------------|
----------------------------|----------------------|
--10-----------10-----------|--10--9--7--10--9--7--|
------7--7--7------7--7--7--|----------------------|


  S S S S S S S S S S S S    S S S S S S S S S S S S  
--------------------------|--------------------------|
--------------------------|--------------------------|
--------------------------|--------------------------|
--9-9-9-9-9-9-------------|--------------------------|
--------------------------|--9-9-9-9-9-9-------------|
--------------7-7-7-7-7-7-|--------------7-7-7-7-7-7-|


  S S S S S S  S  S  S  S S S     S  S  S  S  S  S S S S S S S  
------------------------------|--------------------------------|
------------------------------|--------------------------------|
------------------------------|--------------------------------|
--9-9-9-9-9-9-----------------|--------------------------------|
--------------------------9-9-|--10-10-10-10-10-10-9-9-9-9-9-9-|
--------------10-10-10-10-----|--------------------------------|


  S S S S S S S S S S S S    S S S S S S S S S S S S  
--------------------------|--------------------------|
--------------------------|--------------------------|
--------------------------|--------------------------|
--9-9-9-9-9-9-------------|--------------------------|
--------------------------|--9-9-9-9-9-9-------------|
--------------7-7-7-7-7-7-|--------------7-7-7-7-7-7-|


  S S S S S S  S  S  S  S S S    S S S S S S S S S S S S  
------------------------------|--------------------------|
------------------------------|--------------------------|
------------------------------|--------------------------|
--9-9-9-9-9-9-----------------|--7-7-7-7-7-7-7-7-7-7-7-7-|
--------------------------9-9-|--------------------------|
--------------10-10-10-10-----|--------------------------|


  S S S S S S S S S S S S    S S S S S S S S S S S S  
--------------------------|--------------------------|
--------------------------|--------------------------|
--------------------------|--------------------------|
--9-9-9-9-9-9-------------|--------------------------|
--------------------------|--9-9-9-9-9-9-------------|
--------------7-7-7-7-7-7-|--------------7-7-7-7-7-7-|


  S S S S S S  S  S  S  S S S     S  S  S  S  S  S S S S S S S  
------------------------------|--------------------------------|
------------------------------|--------------------------------|
------------------------------|--------------------------------|
--9-9-9-9-9-9-----------------|--------------------------------|
--------------------------9-9-|--10-10-10-10-10-10-9-9-9-9-9-9-|
--------------10-10-10-10-----|--------------------------------|


  S S S S S S S S S S S S    S S S S S S S S S S S S  
--------------------------|--------------------------|
--------------------------|--------------------------|
--------------------------|--------------------------|
--9-9-9-9-9-9-------------|--------------------------|
--------------------------|--9-9-9-9-9-9-------------|
--------------7-7-7-7-7-7-|--------------7-7-7-7-7-7-|


  S S S S S S  S  S  S  S S S    S S S S S S S S S S S S  
------------------------------|--------------------------|
------------------------------|--------------------------|
------------------------------|--------------------------|
--9-9-9-9-9-9-----------------|--7-7-7-7-7-7-7-7-7-7-7-7-|
--------------------------9-9-|--------------------------|
--------------10-10-10-10-----|--------------------------|


     PM PM PM    PM PM PM       PM PM PM    PM PM PM  
  E  S  S  E  E  S  S  E     E  S  S  E  E  S  S  E   
--------------------------|--------------------------|
--------------------------|--------------------------|
--------------------------|--------------------------|
--9-----------9-----------|--------------------------|
--------------------------|--9-----------9-----------|
-----7--7--7-----7--7--7--|-----7--7--7-----7--7--7--|


      PM PM PM     PM PM PM                         
   E  S  S  E   E  S  S  E      E  E   E  Q     E   
----------------------------|----------------------|
----------------------------|----------------------|
----------------------------|----------------------|
----------------------------|----------------------|
--10-----------10-----------|------9--10--9--------|
------7--7--7------7--7--7--|--10--------------10--|


     PM PM PM    PM PM PM       PM PM PM    PM PM PM  
  E  S  S  E  E  S  S  E     E  S  S  E  E  S  S  E   
--------------------------|--------------------------|
--------------------------|--------------------------|
--------------------------|--------------------------|
--9-----------9-----------|--------------------------|
--------------------------|--9-----------9-----------|
-----7--7--7-----7--7--7--|-----7--7--7-----7--7--7--|


      PM PM PM     PM PM PM                         
   E  S  S  E   E  S  S  E      E  E  E   E  E  E   
----------------------------|----------------------|
----------------------------|----------------------|
----------------------------|----------------------|
----------------------------|----------------------|
--10-----------10-----------|--10--9--7--10--9--7--|
------7--7--7------7--7--7--|----------------------|


     PM PM PM    PM PM PM       PM PM PM    PM PM PM  
  E  S  S  E  E  S  S  E     E  S  S  E  E  S  S  E   
--------------------------|--------------------------|
--------------------------|--------------------------|
--------------------------|--------------------------|
--9-----------9-----------|--------------------------|
--------------------------|--9-----------9-----------|
-----7--7--7-----7--7--7--|-----7--7--7-----7--7--7--|


      PM PM PM     PM PM PM                         
   E  S  S  E   E  S  S  E      E  E   E  Q     E   
----------------------------|----------------------|
----------------------------|----------------------|
----------------------------|----------------------|
----------------------------|----------------------|
--10-----------10-----------|------9--10--9--------|
------7--7--7------7--7--7--|--10--------------10--|


     PM PM PM    PM PM PM       PM PM PM    PM PM PM  
  E  S  S  E  E  S  S  E     E  S  S  E  E  S  S  E   
--------------------------|--------------------------|
--------------------------|--------------------------|
--------------------------|--------------------------|
--9-----------9-----------|--------------------------|
--------------------------|--9-----------9-----------|
-----7--7--7-----7--7--7--|-----7--7--7-----7--7--7--|


      PM PM PM     PM PM PM                         
   E  S  S  E   E  S  S  E      E  E  E   E  E  E   
----------------------------|----------------------|
----------------------------|----------------------|
----------------------------|----------------------|
----------------------------|----------------------|
--10-----------10-----------|--10--9--7--10--9--7--|
------7--7--7------7--7--7--|----------------------|


     PM PM PM    PM PM PM       PM PM PM    PM PM PM  
  E  S  S  E  E  S  S  E     E  S  S  E  E  S  S  E   
--------------------------|--------------------------|
--------------------------|--------------------------|
--4-----------4-----------|--------------------------|
--------------------------|--4-----------4-----------|
--------------------------|--------------------------|
-----3--3--3-----3--3--3--|-----3--3--3-----3--3--3--|


     PM PM PM    PM PM PM       PM PM PM    PM PM PM  
  E  S  S  E  E  S  S  E     E  S  S  E  E  S  S  E   
--------------------------|--------------------------|
--------------------------|--------------------------|
--------------------------|--------------------------|
--------------------------|--------------------------|
--5-----------5-----------|--5-----------5-----------|
-----3--3--3-----3--3--3--|-----3--3--3-----3--3--3--|


     PM PM PM    PM PM PM       PM PM PM    PM PM PM  
  E  S  S  E  E  S  S  E     E  S  S  E  E  S  S  E   
--------------------------|--------------------------|
--------------------------|--------------------------|
--------------------------|--------------------------|
--9-----------9-----------|--------------------------|
--------------------------|--9-----------9-----------|
-----5--5--5-----5--5--5--|-----5--5--5-----5--5--5--|


     PM PM PM    PM PM PM       PM PM PM         
  E  S  S  E  E  S  S  E     E  S  S  E  Q.      
--------------------------|---------------------|
--------------------------|---------------------|
--------------------------|---------------------|
--7-----------7-----------|--7-----------7------|
--------------------------|--------------7------|
-----5--5--5-----5--5--5--|-----5--5--5--5------|


  S S S S S S S S S S S S    S S S S S S S S S S S S  
--------------------------|--------------------------|
--------------------------|--------------------------|
--------------------------|--------------------------|
--------------------------|--------------------------|
--7-7-7-7-7-7-7-7-7-7-7-7-|--7-7-7-7-7-7-9-9-9-9-9-9-|
--------------------------|--------------------------|


   S  S  S  S  S  S  S  S  S  S  S  S  
--------------------------------------|
--------------------------------------|
--------------------------------------|
--------------------------------------|
--10-10-10-10-10-10-10-10-10-10-10-10-|
--------------------------------------|


   S  S  S  S  S  S  S  S  S  S  S  S  
--------------------------------------|
--------------------------------------|
--------------------------------------|
--------------------------------------|
--10-10-10-10-10-10-10-10-10-10-10-10-|
--------------------------------------|


   S  S  S  S  S  S  S  S  S  S  S  S  
--------------------------------------|
--------------------------------------|
--------------------------------------|
--------------------------------------|
--10-10-10-10-10-10-10-10-10-10-10-10-|
--------------------------------------|


   S  S  S  S  S  S S S S S S S    S S S S S S S S S S S S  
--------------------------------|--------------------------|
--------------------------------|--------------------------|
--------------------------------|--------------------------|
--------------------7-7-7-7-7-7-|--9-9-9-9-9-9-9-9-9-9-9-9-|
--10-10-10-10-10-10-------------|--------------------------|
--------------------------------|--------------------------|


   S  S  S  S  S  S  S  S  S  S  S  S    S S S S S S S S S S S S  
--------------------------------------|--------------------------|
--------------------------------------|--------------------------|
--------------------------------------|--------------------------|
--12-12-12-12-12-12-12-12-12-12-12-12-|--9-9-9-9-9-9-9-9-9-9-9-9-|
--------------------------------------|--------------------------|
--------------------------------------|--------------------------|


  S S S S S S  S  S  S  S  S  S  
--------------------------------|
--------------------------------|
--------------------------------|
--9-9-9-9-9-9-11-11-11-11-11-11-|
--------------------------------|
--------------------------------|


   S  S  S  S  S  S  S  S  S  S  S  S  
--------------------------------------|
--------------------------------------|
--------------------------------------|
--12-12-12-12-12-12-12-12-12-12-12-12-|
--------------------------------------|
--------------------------------------|


   S  S  S  S  S  S  S  S  S  S  S  S    S S S S S S S S S S S S  
--------------------------------------|--------------------------|
--------------------------------------|--------------------------|
--------------------------------------|--------------------------|
--11-11-11-11-11-11-11-11-11-11-11-11-|--9-9-9-9-9-9-9-9-9-9-9-9-|
--------------------------------------|--------------------------|
--------------------------------------|--------------------------|


  S S S S S S S S S S S S    S S S S S S S S S S S S  
--------------------------|--------------------------|
--------------------------|--------------------------|
--------------------------|--------------------------|
--------------------------|--------------------------|
--9-9-9-9-9-9-9-9-9-9-9-9-|--9-9-9-9-9-9-9-9-9-9-9-9-|
--------------------------|--------------------------|


  S S S S S S S S S S S S    S S S S S S S S S S S S  
--------------------------|--------------------------|
--------------------------|--------------------------|
--------------------------|--------------------------|
--------------------------|--------------------------|
--9-9-9-9-9-9-9-9-9-9-9-9-|--7-7-7-7-7-7-7-7-7-7-7-7-|
--------------------------|--------------------------|


  S S S S S S S S S S S S     S  S  S  S  S  S  S  S  S  S  S  S  
--------------------------|--------------------------------------|
--------------------------|--------------------------------------|
--------------------------|--------------------------------------|
--------------------------|--------------------------------------|
--7-7-7-7-7-7-9-9-9-9-9-9-|--10-10-10-10-10-10-10-10-10-10-10-10-|
--------------------------|--------------------------------------|


   S  S  S  S  S  S  S  S  S  S  S  S  
--------------------------------------|
--------------------------------------|
--------------------------------------|
--------------------------------------|
--10-10-10-10-10-10-10-10-10-10-10-10-|
--------------------------------------|


   S  S  S  S  S  S  S  S  S  S  S  S  
--------------------------------------|
--------------------------------------|
--------------------------------------|
--------------------------------------|
--10-10-10-10-10-10-10-10-10-10-10-10-|
--------------------------------------|


   S  S  S  S  S  S S S S S S S    S S S S S S S S S S S S  
--------------------------------|--------------------------|
--------------------------------|--------------------------|
--------------------------------|--------------------------|
--------------------7-7-7-7-7-7-|--9-9-9-9-9-9-9-9-9-9-9-9-|
--10-10-10-10-10-10-------------|--------------------------|
--------------------------------|--------------------------|


   S  S  S  S  S  S  S  S  S  S  S  S    S S S S S S S S S S S S  
--------------------------------------|--------------------------|
--------------------------------------|--------------------------|
--------------------------------------|--------------------------|
--12-12-12-12-12-12-12-12-12-12-12-12-|--9-9-9-9-9-9-9-9-9-9-9-9-|
--------------------------------------|--------------------------|
--------------------------------------|--------------------------|


  S S S S S S  S  S  S  S  S  S  
--------------------------------|
--------------------------------|
--------------------------------|
--9-9-9-9-9-9-11-11-11-11-11-11-|
--------------------------------|
--------------------------------|


   S  S  S  S  S  S  S  S  S  S  S  S  
--------------------------------------|
--------------------------------------|
--------------------------------------|
--12-12-12-12-12-12-12-12-12-12-12-12-|
--------------------------------------|
--------------------------------------|


   S  S  S  S  S  S  S  S  S  S  S  S    S S S S S S S S S S S S  
--------------------------------------|--------------------------|
--------------------------------------|--------------------------|
--------------------------------------|--------------------------|
--11-11-11-11-11-11-11-11-11-11-11-11-|--9-9-9-9-9-9-9-9-9-9-9-9-|
--------------------------------------|--------------------------|
--------------------------------------|--------------------------|


  S S S S S S S S S S S S    S S S S S S S S S S S S  
--------------------------|--------------------------|
--------------------------|--------------------------|
--------------------------|--------------------------|
--9-9-9-9-9-9-9-9-9-9-9-9-|--9-9-9-9-9-9-9-9-9-9-9-9-|
--------------------------|--------------------------|
--------------------------|--------------------------|


                                         PM PM  PM     PM PM  
   E  E  E   E  E  E     H.              E  E   E  E   E  E   
----------------------|---------------|----------------------|
----------------------|---------------|----------------------|
----------------------|---------------|----------------------|
----------------------|---------------|------------9---------|
--10--9--7--10--9--7--|--7------------|--7--9--10-----10--9--|
----------------------|---------------|----------------------|


                   PM PM PM PM PM                     
   H.              E  E  E  E  E  E     H.            
----------------|--------------------|---------------|
----------------|--------------------|---------------|
----------------|--------------------|---------------|
--12------------|--9--7--5--9--7--9--|--7------------|
----------------|--------------------|---------------|
----------------|--------------------|---------------|


  PM PM       PM PM                                      
  E  E  E  E  E  E     Q.     Q.         Q.      Q.      
--------------------|----------------|------------------|
--------------------|----------------|------------------|
--------------------|----------------|------------------|
--------------------|--9-------------|----------12------|
--5--7--9--9--7--5--|--7------9------|--10------10------|
--------------------|---------7------|---8--------------|


                  PM PM  PM     PM PM                   
  H.              E  E   E  E   E  E      H.            
---------------|----------------------|----------------|
---------------|----------------------|----------------|
---------------|----------------------|----------------|
---------------|------------9---------|--12------------|
--7------------|--7--9--10-----10--9--|----------------|
---------------|----------------------|----------------|


  PM PM PM PM PM                       PM PM       PM PM  
  E  E  E  E  E  E     H.              E  E  E  E  E  E   
--------------------|---------------|--------------------|
--------------------|---------------|--------------------|
--------------------|---------------|--------------------|
--9--7--5--9--7--9--|--7------------|--------------------|
--------------------|---------------|--5--7--9--9--7--5--|
--------------------|---------------|--------------------|


                                      PM  PM  PM  PM  PM PM  
   H.               Q.      Q.        E   E   E   E   E  E   
----------------|------------------|------------------------|
----------------|------------------|------------------------|
----------------|------------------|--9--11--12--12--11--9--|
--12------------|--11--------------|------------------------|
--10------------|---9------12------|------------------------|
----------------|----------10------|------------------------|


   PM  PM PM  PM  PM PM    PM  PM  PM  PM  PM PM  
   E   E  E   E   E  E     E   E   E   E   E  E   
------------------------|------------------------|
------------------------|------------------------|
--12--11--9--12--11--9--|--9--11--12--12--11--9--|
------------------------|------------------------|
------------------------|------------------------|
------------------------|------------------------|


   PM  PM PM  PM  PM PM     PM  PM  PM  PM  PM  PM  
   E   E  E   E   E  E      E   E   E   E   E   E   
------------------------|--------------------------|
------------------------|--------------------------|
--12--11--9--12--11--9--|--11--12--14--14--12--11--|
------------------------|--------------------------|
------------------------|--------------------------|
------------------------|--------------------------|


   PM  PM  PM  PM  PM  PM     PM  PM  PM  PM  PM  PM  
   E   E   E   E   E   E      E   E   E   E   E   E   
--------------------------|--------------------------|
--------------------------|--------------------------|
--14--12--11--14--12--11--|--11--12--14--14--12--11--|
--------------------------|--------------------------|
--------------------------|--------------------------|
--------------------------|--------------------------|


   PM  PM  PM  PM  PM  PM    PM  PM  PM  PM  PM PM  
   E   E   E   E   E   E     E   E   E   E   E  E   
--------------------------|------------------------|
--------------------------|------------------------|
--14--12--11--14--12--11--|--9--11--12--12--11--9--|
--------------------------|------------------------|
--------------------------|------------------------|
--------------------------|------------------------|


   PM  PM PM  PM  PM PM    PM  PM  PM  PM  PM PM  
   E   E  E   E   E  E     E   E   E   E   E  E   
------------------------|------------------------|
------------------------|------------------------|
--12--11--9--12--11--9--|--9--11--12--12--11--9--|
------------------------|------------------------|
------------------------|------------------------|
------------------------|------------------------|


   PM  PM PM  PM  PM PM     PM  PM  PM  PM  PM  PM  
   E   E  E   E   E  E      E   E   E   E   E   E   
------------------------|--------------------------|
------------------------|--------------------------|
--12--11--9--12--11--9--|--11--12--14--14--12--11--|
------------------------|--------------------------|
------------------------|--------------------------|
------------------------|--------------------------|


   PM  PM  PM  PM  PM  PM     PM  PM  PM  PM  PM  PM  
   E   E   E   E   E   E      E   E   E   E   E   E   
--------------------------|--------------------------|
--------------------------|--------------------------|
--14--12--11--14--12--11--|--11--12--14--14--12--11--|
--------------------------|--------------------------|
--------------------------|--------------------------|
--------------------------|--------------------------|


   PM  PM  PM  PM  PM  PM                             
   E   E   E   E   E   E     S S S S S S S S S S S S  
--------------------------|--------------------------|
--------------------------|--------------------------|
--14--12--11--14--12--11--|--------------------------|
--------------------------|--9-9-9-9-9-9-------------|
--------------------------|--------------------------|
--------------------------|--------------7-7-7-7-7-7-|


  S S S S S S S S S S S S    S S S S S S  S  S  S  S S S  
--------------------------|------------------------------|
--------------------------|------------------------------|
--------------------------|------------------------------|
--------------------------|--9-9-9-9-9-9-----------------|
--9-9-9-9-9-9-------------|--------------------------9-9-|
--------------7-7-7-7-7-7-|--------------10-10-10-10-----|


   S  S  S  S  S  S S S S S S S    S S S S S S S S S S S S  
--------------------------------|--------------------------|
--------------------------------|--------------------------|
--------------------------------|--------------------------|
--------------------------------|--9-9-9-9-9-9-------------|
--10-10-10-10-10-10-9-9-9-9-9-9-|--------------------------|
--------------------------------|--------------7-7-7-7-7-7-|


  S S S S S S S S S S S S    S S S S S S  S  S  S  S S S  
--------------------------|------------------------------|
--------------------------|------------------------------|
--------------------------|------------------------------|
--------------------------|--9-9-9-9-9-9-----------------|
--9-9-9-9-9-9-------------|--------------------------9-9-|
--------------7-7-7-7-7-7-|--------------10-10-10-10-----|


  S S S S S S S S S S S S    S S S S S S S S S S S S  
--------------------------|--------------------------|
--------------------------|--------------------------|
--------------------------|--------------------------|
--7-7-7-7-7-7-7-7-7-7-7-7-|--9-9-9-9-9-9-------------|
--------------------------|--------------------------|
--------------------------|--------------7-7-7-7-7-7-|


  S S S S S S S S S S S S    S S S S S S  S  S  S  S S S  
--------------------------|------------------------------|
--------------------------|------------------------------|
--------------------------|------------------------------|
--------------------------|--9-9-9-9-9-9-----------------|
--9-9-9-9-9-9-------------|--------------------------9-9-|
--------------7-7-7-7-7-7-|--------------10-10-10-10-----|


   S  S  S  S  S  S S S S S S S    S S S S S S S S S S S S  
--------------------------------|--------------------------|
--------------------------------|--------------------------|
--------------------------------|--------------------------|
--------------------------------|--9-9-9-9-9-9-------------|
--10-10-10-10-10-10-9-9-9-9-9-9-|--------------------------|
--------------------------------|--------------7-7-7-7-7-7-|


  S S S S S S S S S S S S    S S S S S S  S  S  S  S S S  
--------------------------|------------------------------|
--------------------------|------------------------------|
--------------------------|------------------------------|
--------------------------|--9-9-9-9-9-9-----------------|
--9-9-9-9-9-9-------------|--------------------------9-9-|
--------------7-7-7-7-7-7-|--------------10-10-10-10-----|


                                PM PM PM    PM PM PM  
  S S S S S S S S S S S S    E  S  S  E  E  S  S  E   
--------------------------|--------------------------|
--------------------------|--------------------------|
--------------------------|--------------------------|
--7-7-7-7-7-7-7-7-7-7-7-7-|--------------------------|
--------------------------|--2-----------2-----------|
--------------------------|--0--0--0--0--0--0--0--0--|


     PM PM PM    PM PM PM       PM PM PM    PM PM PM  
  E  S  S  E  E  S  S  E     E  S  S  E  E  S  S  E   
--------------------------|--------------------------|
--------------------------|--------------------------|
--------------------------|--------------------------|
--------------------------|--------------------------|
--2-----------2-----------|--3-----------3-----------|
-----0--0--0-----0--0--0--|-----0--0--0-----0--0--0--|


                         PM PM PM    PM PM PM  
  E  E  E  Q    E     E  S  S  E  E  S  S  E   
-------------------|--------------------------|
-------------------|--------------------------|
-------------------|--------------------------|
----------------5--|--------------------------|
-----2--3--2-------|--2-----------2-----------|
--3----------------|--0--0--0--0--0--0--0--0--|


     PM PM PM    PM PM PM       PM PM PM    PM PM PM  
  E  S  S  E  E  S  S  E     E  S  S  E  E  S  S  E   
--------------------------|--------------------------|
--------------------------|--------------------------|
--------------------------|--------------------------|
--------------------------|--------------------------|
--2-----------2-----------|--3-----------3-----------|
-----0--0--0-----0--0--0--|-----0--0--0-----0--0--0--|


                          PM PM PM    PM PM PM  
  E  E  E  E  E  E     E  S  S  E  E  S  S  E   
--------------------|--------------------------|
--------------------|--------------------------|
--------------------|--------------------------|
--------------------|--------------------------|
--3--2--0--5--3--2--|--2-----------2-----------|
--------------------|--0--0--0--0--0--0--0--0--|


     PM PM PM    PM PM PM       PM PM PM    PM PM PM  
  E  S  S  E  E  S  S  E     E  S  S  E  E  S  S  E   
--------------------------|--------------------------|
--------------------------|--------------------------|
--------------------------|--------------------------|
--------------------------|--------------------------|
--2-----------2-----------|--3-----------3-----------|
-----0--0--0-----0--0--0--|-----0--0--0-----0--0--0--|


                         PM PM PM    PM PM PM  
  E  E  E  Q    E     E  S  S  E  E  S  S  E   
-------------------|--------------------------|
-------------------|--------------------------|
-------------------|--------------------------|
----------------5--|--------------------------|
-----2--3--2-------|--2-----------2-----------|
--3----------------|--0--0--0--0--0--0--0--0--|


     PM PM PM    PM PM PM       PM PM PM    PM PM PM  
  E  S  S  E  E  S  S  E     E  S  S  E  E  S  S  E   
--------------------------|--------------------------|
--------------------------|--------------------------|
--------------------------|--------------------------|
--------------------------|--------------------------|
--2-----------2-----------|--3-----------3-----------|
-----0--0--0-----0--0--0--|-----0--0--0-----0--0--0--|


                          PM PM PM    PM PM PM  
  E  E  E  E  E  E     E  S  S  E  E  S  S  E   
--------------------|--------------------------|
--------------------|--------------------------|
--------------------|--4-----------4-----------|
--------------------|--------------------------|
--3--2--0--5--3--2--|--------------------------|
--------------------|-----3--3--3-----3--3--3--|


     PM PM PM    PM PM PM       PM PM PM    PM PM PM  
  E  S  S  E  E  S  S  E     E  S  S  E  E  S  S  E   
--------------------------|--------------------------|
--------------------------|--------------------------|
--------------------------|--------------------------|
--4-----------4-----------|--------------------------|
--------------------------|--5-----------5-----------|
-----3--3--3-----3--3--3--|-----3--3--3-----3--3--3--|


     PM PM PM    PM PM PM       PM PM PM    PM PM PM  
  E  S  S  E  E  S  S  E     E  S  S  E  E  S  S  E   
--------------------------|--------------------------|
--------------------------|--------------------------|
--------------------------|--------------------------|
--------------------------|--9-----------9-----------|
--5-----------5-----------|--------------------------|
-----3--3--3-----3--3--3--|-----5--5--5-----5--5--5--|


     PM PM PM    PM PM PM       PM PM PM    PM PM PM  
  E  S  S  E  E  S  S  E     E  S  S  E  E  S  S  E   
--------------------------|--------------------------|
--------------------------|--------------------------|
--------------------------|--------------------------|
--------------------------|--7-----------7-----------|
--9-----------9-----------|--------------------------|
-----5--5--5-----5--5--5--|-----5--5--5-----5--5--5--|


     PM PM PM                                    
  E  S  S  E  Q.        S S S S S S S S S S S S  
---------------------|--------------------------|
---------------------|--------------------------|
---------------------|--------------------------|
--7-----------7------|--------------------------|
--------------7------|--7-7-7-7-7-7-7-7-7-7-7-7-|
-----5--5--5--5------|--------------------------|


  S S S S S S S S S S S S     S  S  S  S  S  S  S  S  S  S  S  S  
--------------------------|--------------------------------------|
--------------------------|--------------------------------------|
--------------------------|--------------------------------------|
--------------------------|--------------------------------------|
--7-7-7-7-7-7-9-9-9-9-9-9-|--10-10-10-10-10-10-10-10-10-10-10-10-|
--------------------------|--------------------------------------|


   S  S  S  S  S  S  S  S  S  S  S  S  
--------------------------------------|
--------------------------------------|
--------------------------------------|
--------------------------------------|
--10-10-10-10-10-10-10-10-10-10-10-10-|
--------------------------------------|


   S  S  S  S  S  S  S  S  S  S  S  S  
--------------------------------------|
--------------------------------------|
--------------------------------------|
--------------------------------------|
--10-10-10-10-10-10-10-10-10-10-10-10-|
--------------------------------------|


   S  S  S  S  S  S S S S S S S    S S S S S S S S S S S S  
--------------------------------|--------------------------|
--------------------------------|--------------------------|
--------------------------------|--------------------------|
--------------------7-7-7-7-7-7-|--9-9-9-9-9-9-9-9-9-9-9-9-|
--10-10-10-10-10-10-------------|--------------------------|
--------------------------------|--------------------------|


   S  S  S  S  S  S  S  S  S  S  S  S    S S S S S S S S S S S S  
--------------------------------------|--------------------------|
--------------------------------------|--------------------------|
--------------------------------------|--------------------------|
--12-12-12-12-12-12-12-12-12-12-12-12-|--9-9-9-9-9-9-9-9-9-9-9-9-|
--------------------------------------|--------------------------|
--------------------------------------|--------------------------|


  S S S S S S  S  S  S  S  S  S  
--------------------------------|
--------------------------------|
--------------------------------|
--9-9-9-9-9-9-11-11-11-11-11-11-|
--------------------------------|
--------------------------------|


   S  S  S  S  S  S  S  S  S  S  S  S  
--------------------------------------|
--------------------------------------|
--------------------------------------|
--12-12-12-12-12-12-12-12-12-12-12-12-|
--------------------------------------|
--------------------------------------|


   S  S  S  S  S  S  S  S  S  S  S  S    S S S S S S S S S S S S  
--------------------------------------|--------------------------|
--------------------------------------|--------------------------|
--------------------------------------|--------------------------|
--11-11-11-11-11-11-11-11-11-11-11-11-|--9-9-9-9-9-9-9-9-9-9-9-9-|
--------------------------------------|--------------------------|
--------------------------------------|--------------------------|


  S S S S S S S S S S S S    S S S S S S S S S S S S  
--------------------------|--------------------------|
--------------------------|--------------------------|
--------------------------|--------------------------|
--------------------------|--------------------------|
--9-9-9-9-9-9-9-9-9-9-9-9-|--9-9-9-9-9-9-9-9-9-9-9-9-|
--------------------------|--------------------------|


  S S S S S S S S S S S S    S S S S S S S S S S S S  
--------------------------|--------------------------|
--------------------------|--------------------------|
--------------------------|--------------------------|
--------------------------|--------------------------|
--9-9-9-9-9-9-9-9-9-9-9-9-|--7-7-7-7-7-7-7-7-7-7-7-7-|
--------------------------|--------------------------|


  S S S S S S S S S S S S     S  S  S  S  S  S  S  S  S  S  S  S  
--------------------------|--------------------------------------|
--------------------------|--------------------------------------|
--------------------------|--------------------------------------|
--------------------------|--------------------------------------|
--7-7-7-7-7-7-9-9-9-9-9-9-|--10-10-10-10-10-10-10-10-10-10-10-10-|
--------------------------|--------------------------------------|


   S  S  S  S  S  S  S  S  S  S  S  S  
--------------------------------------|
--------------------------------------|
--------------------------------------|
--------------------------------------|
--10-10-10-10-10-10-10-10-10-10-10-10-|
--------------------------------------|


   S  S  S  S  S  S  S  S  S  S  S  S  
--------------------------------------|
--------------------------------------|
--------------------------------------|
--------------------------------------|
--10-10-10-10-10-10-10-10-10-10-10-10-|
--------------------------------------|


   S  S  S  S  S  S S S S S S S    S S S S S S S S S S S S  
--------------------------------|--------------------------|
--------------------------------|--------------------------|
--------------------------------|--------------------------|
--------------------7-7-7-7-7-7-|--9-9-9-9-9-9-9-9-9-9-9-9-|
--10-10-10-10-10-10-------------|--------------------------|
--------------------------------|--------------------------|


   S  S  S  S  S  S  S  S  S  S  S  S    S S S S S S S S S S S S  
--------------------------------------|--------------------------|
--------------------------------------|--------------------------|
--------------------------------------|--------------------------|
--12-12-12-12-12-12-12-12-12-12-12-12-|--9-9-9-9-9-9-9-9-9-9-9-9-|
--------------------------------------|--------------------------|
--------------------------------------|--------------------------|


  S S S S S S  S  S  S  S  S  S  
--------------------------------|
--------------------------------|
--------------------------------|
--9-9-9-9-9-9-11-11-11-11-11-11-|
--------------------------------|
--------------------------------|


   S  S  S  S  S  S  S  S  S  S  S  S  
--------------------------------------|
--------------------------------------|
--------------------------------------|
--12-12-12-12-12-12-12-12-12-12-12-12-|
--------------------------------------|
--------------------------------------|


   S  S  S  S  S  S  S  S  S  S  S  S    S S S S S S S S S S S S  
--------------------------------------|--------------------------|
--------------------------------------|--------------------------|
--------------------------------------|--------------------------|
--11-11-11-11-11-11-11-11-11-11-11-11-|--9-9-9-9-9-9-9-9-9-9-9-9-|
--------------------------------------|--------------------------|
--------------------------------------|--------------------------|


  S S S S S S S S S S S S    S S S S S S S S S S S S  
--------------------------|--------------------------|
--------------------------|--------------------------|
--------------------------|--------------------------|
--9-9-9-9-9-9-9-9-9-9-9-9-|--9-9-9-9-9-9-9-9-9-9-9-9-|
--------------------------|--------------------------|
--------------------------|--------------------------|


  S S S S S S S S S S S S    H.              H.            
--------------------------|---------------|---------------|
--------------------------|---------------|---------------|
--------------------------|---------------|---------------|
--9-9-9-9-9-9-9-9-9-9-9-9-|--9------------|--L------------|
--------------------------|---------------|---------------|
--------------------------|---------------|---------------|


  H.              H.              H.              H.            
---------------|---------------|---------------|---------------|
---------------|---------------|---------------|---------------|
---------------|---------------|---------------|---------------|
--L------------|--L------------|--L------------|--L------------|
---------------|---------------|---------------|---------------|
---------------|---------------|---------------|---------------|


                                  PM PM PM PM PM PM  
  H.              H.              E  E  E  E  E  E   
---------------|---------------|--------------------|
---------------|---------------|--------------------|
---------------|---------------|--------------------|
--L------------|--L------------|--------------------|
---------------|---------------|--------------------|
---------------|---------------|--0--0--0--0--0--0--|


  PM PM PM PM PM PM    PM PM PM PM PM PM    PM PM PM PM PM PM  
  E  E  E  E  E  E     E  E  E  E  E  E     E  E  E  E  E  E   
--------------------|--------------------|--------------------|
--------------------|--------------------|--------------------|
--------------------|--------------------|--------------------|
--------------------|--------------------|--------------------|
--------------------|--------------------|--------------------|
--0--0--0--0--0--0--|--3--3--3--3--3--3--|--3--3--3--3--3--3--|


  PM PM PM PM PM PM    PM PM PM PM PM PM    PM PM PM PM PM PM  
  E  E  E  E  E  E     E  E  E  E  E  E     E  E  E  E  E  E   
--------------------|--------------------|--------------------|
--------------------|--------------------|--------------------|
--------------------|--------------------|--------------------|
--------------------|--------------------|--------------------|
--------------------|--------------------|--------------------|
--3--3--3--3--3--3--|--3--3--3--3--3--3--|--3--3--3--3--3--3--|


  PM PM PM PM PM PM    PM PM PM PM PM PM    PM PM PM PM PM PM  
  E  E  E  E  E  E     E  E  E  E  E  E     E  E  E  E  E  E   
--------------------|--------------------|--------------------|
--------------------|--------------------|--------------------|
--------------------|--------------------|--------------------|
--------------------|--------------------|--------------------|
--------------------|--------------------|--------------------|
--3--3--3--3--3--3--|--0--0--0--0--0--0--|--0--0--0--0--0--0--|


  PM PM PM PM PM PM    PM PM PM PM PM PM    PM PM PM PM PM PM  
  E  E  E  E  E  E     E  E  E  E  E  E     E  E  E  E  E  E   
--------------------|--------------------|--------------------|
--------------------|--------------------|--------------------|
--------------------|--------------------|--------------------|
--------------------|--------------------|--------------------|
--------------------|--------------------|--------------------|
--3--3--3--3--3--3--|--3--3--3--3--3--3--|--3--3--3--3--3--3--|


  PM PM PM PM PM PM    PM PM PM PM PM PM    PM PM PM PM PM PM  
  E  E  E  E  E  E     E  E  E  E  E  E     E  E  E  E  E  E   
--------------------|--------------------|--------------------|
--------------------|--------------------|--------------------|
--------------------|--------------------|--------------------|
--------------------|--------------------|--------------------|
--------------------|--------------------|--------------------|
--3--3--3--3--3--3--|--3--3--3--3--3--3--|--3--3--3--3--3--3--|


  PM PM PM PM PM PM    PM PM PM PM PM PM    PM PM PM PM PM PM  
  E  E  E  E  E  E     E  E  E  E  E  E     E  E  E  E  E  E   
--------------------|--------------------|--------------------|
--------------------|--------------------|--------------------|
--------------------|--------------------|--------------------|
--------------------|--------------------|--------------------|
--------------------|--------------------|--------------------|
--0--0--0--0--0--0--|--0--0--0--0--0--0--|--3--3--3--3--3--3--|


  PM PM PM PM PM PM    PM PM PM PM PM PM    PM PM PM PM PM PM  
  E  E  E  E  E  E     E  E  E  E  E  E     E  E  E  E  E  E   
--------------------|--------------------|--------------------|
--------------------|--------------------|--------------------|
--------------------|--------------------|--------------------|
--------------------|--------------------|--------------------|
--------------------|--------------------|--------------------|
--3--3--3--3--3--3--|--3--3--3--3--3--3--|--3--3--3--3--3--3--|


  PM PM PM PM PM PM    PM PM PM PM PM PM                  
  E  E  E  E  E  E     E  E  E  E  E  E     H.            
--------------------|--------------------|---------------|
--------------------|--------------------|---------------|
--------------------|--------------------|---------------|
--------------------|--------------------|---------------|
--------------------|--------------------|--7------------|
--3--3--3--3--3--3--|--3--3--3--3--3--3--|---------------|


  PM PM  PM     PM PM                     PM PM PM PM PM     
  E  E   E  E   E  E      H.              E  E  E  E  E  E   
----------------------|----------------|--------------------|
----------------------|----------------|--------------------|
----------------------|----------------|--------------------|
------------9---------|--12------------|--9--7--5--9--7--9--|
--7--9--10-----10--9--|----------------|--------------------|
----------------------|----------------|--------------------|


                  PM PM       PM PM                   
  H.              E  E  E  E  E  E     Q.     Q.      
---------------|--------------------|----------------|
---------------|--------------------|----------------|
---------------|--------------------|----------------|
--7------------|--------------------|--9-------------|
---------------|--5--7--9--9--7--5--|--7------9------|
---------------|--------------------|---------7------|


                                     PM PM  PM     PM PM  
   Q.      Q.        H.              E  E   E  E   E  E   
------------------|---------------|----------------------|
------------------|---------------|----------------------|
------------------|---------------|----------------------|
----------12------|---------------|------------9---------|
--10------10------|--7------------|--7--9--10-----10--9--|
---8--------------|---------------|----------------------|


                   PM PM PM PM PM                     
   H.              E  E  E  E  E  E     H.            
----------------|--------------------|---------------|
----------------|--------------------|---------------|
----------------|--------------------|---------------|
--12------------|--9--7--5--9--7--9--|--7------------|
----------------|--------------------|---------------|
----------------|--------------------|---------------|


  PM PM       PM PM                                      
  E  E  E  E  E  E      H.               Q.      Q.      
--------------------|----------------|------------------|
--------------------|----------------|------------------|
--------------------|----------------|------------------|
--------------------|--12------------|--11--------------|
--5--7--9--9--7--5--|--10------------|---9------12------|
--------------------|----------------|----------10------|


  PM  PM  PM  PM  PM PM     PM  PM PM  PM  PM PM  
  E   E   E   E   E  E      E   E  E   E   E  E   
------------------------|------------------------|
------------------------|------------------------|
--9--11--12--12--11--9--|--12--11--9--12--11--9--|
------------------------|------------------------|
------------------------|------------------------|
------------------------|------------------------|


  PM  PM  PM  PM  PM PM     PM  PM PM  PM  PM PM  
  E   E   E   E   E  E      E   E  E   E   E  E   
------------------------|------------------------|
------------------------|------------------------|
--9--11--12--12--11--9--|--12--11--9--12--11--9--|
------------------------|------------------------|
------------------------|------------------------|
------------------------|------------------------|


   PM  PM  PM  PM  PM  PM     PM  PM  PM  PM  PM  PM  
   E   E   E   E   E   E      E   E   E   E   E   E   
--------------------------|--------------------------|
--------------------------|--------------------------|
--11--12--14--14--12--11--|--14--12--11--14--12--11--|
--------------------------|--------------------------|
--------------------------|--------------------------|
--------------------------|--------------------------|


   PM  PM  PM  PM  PM  PM     PM  PM  PM  PM  PM  PM  
   E   E   E   E   E   E      E   E   E   E   E   E   
--------------------------|--------------------------|
--------------------------|--------------------------|
--11--12--14--14--12--11--|--14--12--11--14--12--11--|
--------------------------|--------------------------|
--------------------------|--------------------------|
--------------------------|--------------------------|


  PM  PM  PM  PM  PM PM     PM  PM PM  PM  PM PM  
  E   E   E   E   E  E      E   E  E   E   E  E   
------------------------|------------------------|
------------------------|------------------------|
--9--11--12--12--11--9--|--12--11--9--12--11--9--|
------------------------|------------------------|
------------------------|------------------------|
------------------------|------------------------|


  PM  PM  PM  PM  PM PM     PM  PM PM  PM  PM PM  
  E   E   E   E   E  E      E   E  E   E   E  E   
------------------------|------------------------|
------------------------|------------------------|
--9--11--12--12--11--9--|--12--11--9--12--11--9--|
------------------------|------------------------|
------------------------|------------------------|
------------------------|------------------------|


   PM  PM  PM  PM  PM  PM     PM  PM  PM  PM  PM  PM  
   E   E   E   E   E   E      E   E   E   E   E   E   
--------------------------|--------------------------|
--------------------------|--------------------------|
--11--12--14--14--12--11--|--14--12--11--14--12--11--|
--------------------------|--------------------------|
--------------------------|--------------------------|
--------------------------|--------------------------|


   PM  PM  PM  PM  PM  PM     PM  PM  PM  PM  PM  PM  
   E   E   E   E   E   E      E   E   E   E   E   E   
--------------------------|--------------------------|
--------------------------|--------------------------|
--11--12--14--14--12--11--|--14--12--11--14--12--11--|
--------------------------|--------------------------|
--------------------------|--------------------------|
--------------------------|--------------------------|


  PM  PM  PM  PM  PM PM     PM  PM PM  PM  PM PM  
  E   E   E   E   E  E      E   E  E   E   E  E   
------------------------|------------------------|
------------------------|------------------------|
--9--11--12--12--11--9--|--12--11--9--12--11--9--|
------------------------|------------------------|
------------------------|------------------------|
------------------------|------------------------|


  PM  PM  PM  PM  PM PM     PM  PM PM  PM  PM PM  
  E   E   E   E   E  E      E   E  E   E   E  E   
------------------------|------------------------|
------------------------|------------------------|
--9--11--12--12--11--9--|--12--11--9--12--11--9--|
------------------------|------------------------|
------------------------|------------------------|
------------------------|------------------------|


   PM  PM  PM  PM  PM  PM     PM  PM  PM  PM  PM  PM  
   E   E   E   E   E   E      E   E   E   E   E   E   
--------------------------|--------------------------|
--------------------------|--------------------------|
--11--12--14--14--12--11--|--14--12--11--14--12--11--|
--------------------------|--------------------------|
--------------------------|--------------------------|
--------------------------|--------------------------|


   PM  PM  PM  PM  PM  PM     PM  PM  PM  PM  PM  PM  
   E   E   E   E   E   E      E   E   E   E   E   E   
--------------------------|--------------------------|
--------------------------|--------------------------|
--11--12--14--14--12--11--|--14--12--11--14--12--11--|
--------------------------|--------------------------|
--------------------------|--------------------------|
--------------------------|--------------------------|


  E   E   E   E   E  E      E   E  E   E   E  E   
------------------------|------------------------|
------------------------|------------------------|
--9--11--12--12--11--9--|--12--11--9--12--11--9--|
------------------------|------------------------|
------------------------|------------------------|
------------------------|------------------------|


  E   E   E   E   E  E      E   E  E   E   E  E   
------------------------|------------------------|
------------------------|------------------------|
--9--11--12--12--11--9--|--12--11--9--12--11--9--|
------------------------|------------------------|
------------------------|------------------------|
------------------------|------------------------|


   E   E   E   E   E   E      E   E   E   E   E   E   
--------------------------|--------------------------|
--------------------------|--------------------------|
--11--12--14--14--12--11--|--14--12--11--14--12--11--|
--------------------------|--------------------------|
--------------------------|--------------------------|
--------------------------|--------------------------|


   E   E   E   E   E   E      E   E   E   E   E   E   
--------------------------|--------------------------|
--------------------------|--------------------------|
--11--12--14--14--12--11--|--14--12--11--14--12--11--|
--------------------------|--------------------------|
--------------------------|--------------------------|
--------------------------|--------------------------|


   H.              H.              H.              H.            
----------------|---------------|---------------|---------------|
--12------------|--L------------|--L------------|--L------------|
----------------|---------------|---------------|---------------|
----------------|---------------|---------------|---------------|
----------------|---------------|---------------|---------------|
----------------|---------------|---------------|---------------|


  H.              H.             
---------------|---------------||
--L------------|--L------------||
---------------|---------------||
---------------|---------------||
---------------|---------------||
---------------|---------------||


Git 2



      S S S S S S S S S S S S    S S S S S S S S S S S S  
B ||--------------------------|--------------------------|
F#||--------------------------|--------------------------|
D ||--------------------------|--------------------------|
A ||--9-9-9-9-9-9-------------|--------------------------|
E ||--------------------------|--9-9-9-9-9-9-------------|
B ||--------------7-7-7-7-7-7-|--------------7-7-7-7-7-7-|


  S S S S S S  S  S  S  S S S     S  S  S  S  S  S S S S S S S  
------------------------------|--------------------------------|
------------------------------|--------------------------------|
------------------------------|--------------------------------|
--9-9-9-9-9-9-----------------|--------------------------------|
--------------------------9-9-|--10-10-10-10-10-10-9-9-9-9-9-9-|
--------------10-10-10-10-----|--------------------------------|


  S S S S S S S S S S S S    S S S S S S S S S S S S  
--------------------------|--------------------------|
--------------------------|--------------------------|
--------------------------|--------------------------|
--9-9-9-9-9-9-------------|--------------------------|
--------------------------|--9-9-9-9-9-9-------------|
--------------7-7-7-7-7-7-|--------------7-7-7-7-7-7-|


  S S S S S S  S  S  S  S S S    S S S S S S S S S S S S  
------------------------------|--------------------------|
------------------------------|--------------------------|
------------------------------|--------------------------|
--9-9-9-9-9-9-----------------|--7-7-7-7-7-7-7-7-7-7-7-7-|
--------------------------9-9-|--------------------------|
--------------10-10-10-10-----|--------------------------|


  S S S S S S S S S S S S    S S S S S S S S S S S S  
--------------------------|--------------------------|
--------------------------|--------------------------|
--------------------------|--------------------------|
--9-9-9-9-9-9-------------|--------------------------|
--------------------------|--9-9-9-9-9-9-------------|
--------------7-7-7-7-7-7-|--------------7-7-7-7-7-7-|


  S S S S S S  S  S  S  S S S     S  S  S  S  S  S S S S S S S  
------------------------------|--------------------------------|
------------------------------|--------------------------------|
------------------------------|--------------------------------|
--9-9-9-9-9-9-----------------|--------------------------------|
--------------------------9-9-|--10-10-10-10-10-10-9-9-9-9-9-9-|
--------------10-10-10-10-----|--------------------------------|


  S S S S S S S S S S S S    S S S S S S S S S S S S  
--------------------------|--------------------------|
--------------------------|--------------------------|
--------------------------|--------------------------|
--9-9-9-9-9-9-------------|--------------------------|
--------------------------|--9-9-9-9-9-9-------------|
--------------7-7-7-7-7-7-|--------------7-7-7-7-7-7-|


  S S S S S S  S  S  S  S S S    S S S S S S S S S S S S  
------------------------------|--------------------------|
------------------------------|--------------------------|
------------------------------|--------------------------|
--9-9-9-9-9-9-----------------|--7-7-7-7-7-7-7-7-7-7-7-7-|
--------------------------9-9-|--------------------------|
--------------10-10-10-10-----|--------------------------|


     PM PM PM    PM PM PM       PM PM PM    PM PM PM  
  E  S  S  E  E  S  S  E     E  S  S  E  E  S  S  E   
--------------------------|--------------------------|
--------------------------|--------------------------|
--------------------------|--------------------------|
--9-----------9-----------|--------------------------|
--------------------------|--9-----------9-----------|
-----7--7--7-----7--7--7--|-----7--7--7-----7--7--7--|


      PM PM PM     PM PM PM                         
   E  S  S  E   E  S  S  E      E  E   E  Q     E   
----------------------------|----------------------|
----------------------------|----------------------|
----------------------------|----------------------|
----------------------------|----------------------|
--10-----------10-----------|------9--10--9--------|
------7--7--7------7--7--7--|--10--------------10--|


     PM PM PM    PM PM PM       PM PM PM    PM PM PM  
  E  S  S  E  E  S  S  E     E  S  S  E  E  S  S  E   
--------------------------|--------------------------|
--------------------------|--------------------------|
--------------------------|--------------------------|
--9-----------9-----------|--------------------------|
--------------------------|--9-----------9-----------|
-----7--7--7-----7--7--7--|-----7--7--7-----7--7--7--|


      PM PM PM     PM PM PM                         
   E  S  S  E   E  S  S  E      E  E  E   E  E  E   
----------------------------|----------------------|
----------------------------|----------------------|
----------------------------|----------------------|
----------------------------|----------------------|
--10-----------10-----------|--10--9--7--10--9--7--|
------7--7--7------7--7--7--|----------------------|


     PM PM PM    PM PM PM       PM PM PM    PM PM PM  
  E  S  S  E  E  S  S  E     E  S  S  E  E  S  S  E   
--------------------------|--------------------------|
--------------------------|--------------------------|
--------------------------|--------------------------|
--9-----------9-----------|--------------------------|
--------------------------|--9-----------9-----------|
-----7--7--7-----7--7--7--|-----7--7--7-----7--7--7--|


      PM PM PM     PM PM PM                         
   E  S  S  E   E  S  S  E      E  E   E  Q     E   
----------------------------|----------------------|
----------------------------|----------------------|
----------------------------|----------------------|
----------------------------|----------------------|
--10-----------10-----------|------9--10--9--------|
------7--7--7------7--7--7--|--10--------------10--|


     PM PM PM    PM PM PM       PM PM PM    PM PM PM  
  E  S  S  E  E  S  S  E     E  S  S  E  E  S  S  E   
--------------------------|--------------------------|
--------------------------|--------------------------|
--------------------------|--------------------------|
--9-----------9-----------|--------------------------|
--------------------------|--9-----------9-----------|
-----7--7--7-----7--7--7--|-----7--7--7-----7--7--7--|


      PM PM PM     PM PM PM                         
   E  S  S  E   E  S  S  E      E  E  E   E  E  E   
----------------------------|----------------------|
----------------------------|----------------------|
----------------------------|----------------------|
----------------------------|----------------------|
--10-----------10-----------|--10--9--7--10--9--7--|
------7--7--7------7--7--7--|----------------------|


     PM PM PM    PM PM PM       PM PM PM    PM PM PM  
  E  S  S  E  E  S  S  E     E  S  S  E  E  S  S  E   
--------------------------|--------------------------|
--------------------------|--------------------------|
--------------------------|--------------------------|
--9-----------9-----------|--------------------------|
--------------------------|--9-----------9-----------|
-----7--7--7-----7--7--7--|-----7--7--7-----7--7--7--|


      PM PM PM     PM PM PM                         
   E  S  S  E   E  S  S  E      E  E   E  Q     E   
----------------------------|----------------------|
----------------------------|----------------------|
----------------------------|----------------------|
----------------------------|----------------------|
--10-----------10-----------|------9--10--9--------|
------7--7--7------7--7--7--|--10--------------10--|


     PM PM PM    PM PM PM       PM PM PM    PM PM PM  
  E  S  S  E  E  S  S  E     E  S  S  E  E  S  S  E   
--------------------------|--------------------------|
--------------------------|--------------------------|
--------------------------|--------------------------|
--9-----------9-----------|--------------------------|
--------------------------|--9-----------9-----------|
-----7--7--7-----7--7--7--|-----7--7--7-----7--7--7--|


      PM PM PM     PM PM PM                         
   E  S  S  E   E  S  S  E      E  E  E   E  E  E   
----------------------------|----------------------|
----------------------------|----------------------|
----------------------------|----------------------|
----------------------------|----------------------|
--10-----------10-----------|--10--9--7--10--9--7--|
------7--7--7------7--7--7--|----------------------|


     PM PM PM    PM PM PM       PM PM PM    PM PM PM  
  E  S  S  E  E  S  S  E     E  S  S  E  E  S  S  E   
--------------------------|--------------------------|
--------------------------|--------------------------|
--------------------------|--------------------------|
--9-----------9-----------|--------------------------|
--------------------------|--9-----------9-----------|
-----7--7--7-----7--7--7--|-----7--7--7-----7--7--7--|


      PM PM PM     PM PM PM                         
   E  S  S  E   E  S  S  E      E  E   E  Q     E   
----------------------------|----------------------|
----------------------------|----------------------|
----------------------------|----------------------|
----------------------------|----------------------|
--10-----------10-----------|------9--10--9--------|
------7--7--7------7--7--7--|--10--------------10--|


     PM PM PM    PM PM PM       PM PM PM    PM PM PM  
  E  S  S  E  E  S  S  E     E  S  S  E  E  S  S  E   
--------------------------|--------------------------|
--------------------------|--------------------------|
--------------------------|--------------------------|
--9-----------9-----------|--------------------------|
--------------------------|--9-----------9-----------|
-----7--7--7-----7--7--7--|-----7--7--7-----7--7--7--|


      PM PM PM     PM PM PM                         
   E  S  S  E   E  S  S  E      E  E  E   E  E  E   
----------------------------|----------------------|
----------------------------|----------------------|
----------------------------|----------------------|
----------------------------|----------------------|
--10-----------10-----------|--10--9--7--10--9--7--|
------7--7--7------7--7--7--|----------------------|


  S S S S S S S S S S S S    S S S S S S S S S S S S  
--------------------------|--------------------------|
--------------------------|--------------------------|
--------------------------|--------------------------|
--9-9-9-9-9-9-------------|--------------------------|
--------------------------|--9-9-9-9-9-9-------------|
--------------7-7-7-7-7-7-|--------------7-7-7-7-7-7-|


  S S S S S S  S  S  S  S S S     S  S  S  S  S  S S S S S S S  
------------------------------|--------------------------------|
------------------------------|--------------------------------|
------------------------------|--------------------------------|
--9-9-9-9-9-9-----------------|--------------------------------|
--------------------------9-9-|--10-10-10-10-10-10-9-9-9-9-9-9-|
--------------10-10-10-10-----|--------------------------------|


  S S S S S S S S S S S S    S S S S S S S S S S S S  
--------------------------|--------------------------|
--------------------------|--------------------------|
--------------------------|--------------------------|
--9-9-9-9-9-9-------------|--------------------------|
--------------------------|--9-9-9-9-9-9-------------|
--------------7-7-7-7-7-7-|--------------7-7-7-7-7-7-|


  S S S S S S  S  S  S  S S S    S S S S S S S S S S S S  
------------------------------|--------------------------|
------------------------------|--------------------------|
------------------------------|--------------------------|
--9-9-9-9-9-9-----------------|--7-7-7-7-7-7-7-7-7-7-7-7-|
--------------------------9-9-|--------------------------|
--------------10-10-10-10-----|--------------------------|


  S S S S S S S S S S S S    S S S S S S S S S S S S  
--------------------------|--------------------------|
--------------------------|--------------------------|
--------------------------|--------------------------|
--9-9-9-9-9-9-------------|--------------------------|
--------------------------|--9-9-9-9-9-9-------------|
--------------7-7-7-7-7-7-|--------------7-7-7-7-7-7-|


  S S S S S S  S  S  S  S S S     S  S  S  S  S  S S S S S S S  
------------------------------|--------------------------------|
------------------------------|--------------------------------|
------------------------------|--------------------------------|
--9-9-9-9-9-9-----------------|--------------------------------|
--------------------------9-9-|--10-10-10-10-10-10-9-9-9-9-9-9-|
--------------10-10-10-10-----|--------------------------------|


  S S S S S S S S S S S S    S S S S S S S S S S S S  
--------------------------|--------------------------|
--------------------------|--------------------------|
--------------------------|--------------------------|
--9-9-9-9-9-9-------------|--------------------------|
--------------------------|--9-9-9-9-9-9-------------|
--------------7-7-7-7-7-7-|--------------7-7-7-7-7-7-|


  S S S S S S  S  S  S  S S S    S S S S S S S S S S S S  
------------------------------|--------------------------|
------------------------------|--------------------------|
------------------------------|--------------------------|
--9-9-9-9-9-9-----------------|--7-7-7-7-7-7-7-7-7-7-7-7-|
--------------------------9-9-|--------------------------|
--------------10-10-10-10-----|--------------------------|


     PM PM PM    PM PM PM       PM PM PM    PM PM PM  
  E  S  S  E  E  S  S  E     E  S  S  E  E  S  S  E   
--------------------------|--------------------------|
--------------------------|--------------------------|
--------------------------|--------------------------|
--9-----------9-----------|--------------------------|
--------------------------|--9-----------9-----------|
-----7--7--7-----7--7--7--|-----7--7--7-----7--7--7--|


      PM PM PM     PM PM PM                         
   E  S  S  E   E  S  S  E      E  E   E  Q     E   
----------------------------|----------------------|
----------------------------|----------------------|
----------------------------|----------------------|
----------------------------|----------------------|
--10-----------10-----------|------9--10--9--------|
------7--7--7------7--7--7--|--10--------------10--|


     PM PM PM    PM PM PM       PM PM PM    PM PM PM  
  E  S  S  E  E  S  S  E     E  S  S  E  E  S  S  E   
--------------------------|--------------------------|
--------------------------|--------------------------|
--------------------------|--------------------------|
--9-----------9-----------|--------------------------|
--------------------------|--9-----------9-----------|
-----7--7--7-----7--7--7--|-----7--7--7-----7--7--7--|


      PM PM PM     PM PM PM                         
   E  S  S  E   E  S  S  E      E  E  E   E  E  E   
----------------------------|----------------------|
----------------------------|----------------------|
----------------------------|----------------------|
----------------------------|----------------------|
--10-----------10-----------|--10--9--7--10--9--7--|
------7--7--7------7--7--7--|----------------------|


     PM PM PM    PM PM PM       PM PM PM    PM PM PM  
  E  S  S  E  E  S  S  E     E  S  S  E  E  S  S  E   
--------------------------|--------------------------|
--------------------------|--------------------------|
--------------------------|--------------------------|
--9-----------9-----------|--------------------------|
--------------------------|--9-----------9-----------|
-----7--7--7-----7--7--7--|-----7--7--7-----7--7--7--|


      PM PM PM     PM PM PM                         
   E  S  S  E   E  S  S  E      E  E   E  Q     E   
----------------------------|----------------------|
----------------------------|----------------------|
----------------------------|----------------------|
----------------------------|----------------------|
--10-----------10-----------|------9--10--9--------|
------7--7--7------7--7--7--|--10--------------10--|


     PM PM PM    PM PM PM       PM PM PM    PM PM PM  
  E  S  S  E  E  S  S  E     E  S  S  E  E  S  S  E   
--------------------------|--------------------------|
--------------------------|--------------------------|
--------------------------|--------------------------|
--9-----------9-----------|--------------------------|
--------------------------|--9-----------9-----------|
-----7--7--7-----7--7--7--|-----7--7--7-----7--7--7--|


      PM PM PM     PM PM PM                         
   E  S  S  E   E  S  S  E      E  E  E   E  E  E   
----------------------------|----------------------|
----------------------------|----------------------|
----------------------------|----------------------|
----------------------------|----------------------|
--10-----------10-----------|--10--9--7--10--9--7--|
------7--7--7------7--7--7--|----------------------|


     PM PM PM    PM PM PM       PM PM PM    PM PM PM  
  E  S  S  E  E  S  S  E     E  S  S  E  E  S  S  E   
--------------------------|--------------------------|
--------------------------|--------------------------|
--4-----------4-----------|--------------------------|
--------------------------|--4-----------4-----------|
--------------------------|--------------------------|
-----3--3--3-----3--3--3--|-----3--3--3-----3--3--3--|


     PM PM PM    PM PM PM       PM PM PM    PM PM PM  
  E  S  S  E  E  S  S  E     E  S  S  E  E  S  S  E   
--------------------------|--------------------------|
--------------------------|--------------------------|
--------------------------|--------------------------|
--------------------------|--------------------------|
--5-----------5-----------|--5-----------5-----------|
-----3--3--3-----3--3--3--|-----3--3--3-----3--3--3--|


     PM PM PM    PM PM PM       PM PM PM    PM PM PM  
  E  S  S  E  E  S  S  E     E  S  S  E  E  S  S  E   
--------------------------|--------------------------|
--------------------------|--------------------------|
--------------------------|--------------------------|
--9-----------9-----------|--------------------------|
--------------------------|--9-----------9-----------|
-----5--5--5-----5--5--5--|-----5--5--5-----5--5--5--|


     PM PM PM    PM PM PM       PM PM PM         
  E  S  S  E  E  S  S  E     E  S  S  E  Q.      
--------------------------|---------------------|
--------------------------|---------------------|
--------------------------|---------------------|
--7-----------7-----------|--7-----------7------|
--------------------------|--------------7------|
-----5--5--5-----5--5--5--|-----5--5--5--5------|


  S S S S S S S S S S S S    S S S S S S S S S S S S  
--------------------------|--------------------------|
--------------------------|--------------------------|
--------------------------|--------------------------|
--------------------------|--------------------------|
--------------------------|--------------------------|
--0-0-0-0-0-0-0-0-0-0-0-0-|--0-0-0-0-0-0-0-0-0-0-0-0-|


  S S S S S S S S S S S S    S S S S S S S S S S S S  
--------------------------|--------------------------|
--------------------------|--------------------------|
--------------------------|--------------------------|
--------------------------|--------------------------|
--------------------------|--------------------------|
--0-0-0-0-0-0-0-0-0-0-0-0-|--0-0-0-0-0-0-0-0-0-0-0-0-|


  S S S S S S S S S S S S    S S S S S S S S S S S S  
--------------------------|--------------------------|
--------------------------|--------------------------|
--------------------------|--------------------------|
--------------------------|--------------------------|
--------------------------|--------------------------|
--3-3-3-3-3-3-3-3-3-3-3-3-|--3-3-3-3-3-3-3-3-3-3-3-3-|


  S S S S S S S S S S S S    S S S S S S S S S S S S  
--------------------------|--------------------------|
--------------------------|--------------------------|
--------------------------|--------------------------|
--------------------------|--------------------------|
--------------------------|--------------------------|
--3-3-3-3-3-3-3-3-3-3-3-3-|--3-3-3-3-3-3-3-3-3-3-3-3-|


  S S S S S S S S S S S S    S S S S S S S S S S S S  
--------------------------|--------------------------|
--------------------------|--------------------------|
--------------------------|--------------------------|
--------------------------|--------------------------|
--------------------------|--------------------------|
--7-7-7-7-7-7-7-7-7-7-7-7-|--7-7-7-7-7-7-7-7-7-7-7-7-|


  S S S S S S S S S S S S    S S S S S S S S S S S S  
--------------------------|--------------------------|
--------------------------|--------------------------|
--------------------------|--------------------------|
--------------------------|--------------------------|
--------------------------|--------------------------|
--7-7-7-7-7-7-7-7-7-7-7-7-|--5-5-5-5-5-5-5-5-5-5-5-5-|


  S S S S S S S S S S S S    S S S S S S S S S S S S  
--------------------------|--------------------------|
--------------------------|--------------------------|
--------------------------|--------------------------|
--------------------------|--------------------------|
--------------------------|--------------------------|
--7-7-7-7-7-7-7-7-7-7-7-7-|--7-7-7-7-7-7-7-7-7-7-7-7-|


  S S S S S S S S S S S S    S S S S S S S S S S S S  
--------------------------|--------------------------|
--------------------------|--------------------------|
--------------------------|--------------------------|
--------------------------|--------------------------|
--------------------------|--------------------------|
--7-7-7-7-7-7-7-7-7-7-7-7-|--7-7-7-7-7-7-7-7-7-7-7-7-|


  S S S S S S S S S S S S    S S S S S S S S S S S S  
--------------------------|--------------------------|
--------------------------|--------------------------|
--------------------------|--------------------------|
--------------------------|--------------------------|
--------------------------|--------------------------|
--0-0-0-0-0-0-0-0-0-0-0-0-|--0-0-0-0-0-0-0-0-0-0-0-0-|


  S S S S S S S S S S S S    S S S S S S S S S S S S  
--------------------------|--------------------------|
--------------------------|--------------------------|
--------------------------|--------------------------|
--------------------------|--------------------------|
--------------------------|--------------------------|
--0-0-0-0-0-0-0-0-0-0-0-0-|--0-0-0-0-0-0-0-0-0-0-0-0-|


  S S S S S S S S S S S S    S S S S S S S S S S S S  
--------------------------|--------------------------|
--------------------------|--------------------------|
--------------------------|--------------------------|
--------------------------|--------------------------|
--------------------------|--------------------------|
--3-3-3-3-3-3-3-3-3-3-3-3-|--3-3-3-3-3-3-3-3-3-3-3-3-|


  S S S S S S S S S S S S    S S S S S S S S S S S S  
--------------------------|--------------------------|
--------------------------|--------------------------|
--------------------------|--------------------------|
--------------------------|--------------------------|
--------------------------|--------------------------|
--3-3-3-3-3-3-3-3-3-3-3-3-|--3-3-3-3-3-3-3-3-3-3-3-3-|


  S S S S S S S S S S S S    S S S S S S S S S S S S  
--------------------------|--------------------------|
--------------------------|--------------------------|
--------------------------|--------------------------|
--------------------------|--------------------------|
--------------------------|--------------------------|
--7-7-7-7-7-7-7-7-7-7-7-7-|--7-7-7-7-7-7-7-7-7-7-7-7-|


  S S S S S S S S S S S S    S S S S S S S S S S S S  
--------------------------|--------------------------|
--------------------------|--------------------------|
--------------------------|--------------------------|
--------------------------|--------------------------|
--------------------------|--------------------------|
--7-7-7-7-7-7-7-7-7-7-7-7-|--5-5-5-5-5-5-5-5-5-5-5-5-|


  S S S S S S S S S S S S    S S S S S S S S S S S S  
--------------------------|--------------------------|
--------------------------|--------------------------|
--------------------------|--------------------------|
--------------------------|--------------------------|
--------------------------|--------------------------|
--7-7-7-7-7-7-7-7-7-7-7-7-|--7-7-7-7-7-7-7-7-7-7-7-7-|


  S S S S S S S S S S S S     E  E  E   E  E  E     H.            
--------------------------|----------------------|---------------|
--------------------------|----------------------|---------------|
--------------------------|----------------------|---------------|
--------------------------|----------------------|--2------------|
--------------------------|--10--9--7--10--9--7--|--2------------|
--7-7-7-7-7-7-7-7-7-7-7-7-|----------------------|--0------------|


  H.              H.              H.              H.            
---------------|---------------|---------------|---------------|
---------------|---------------|---------------|---------------|
---------------|---------------|---------------|---------------|
--L------------|--5------------|--L------------|--7------------|
--L------------|--5------------|--L------------|--7------------|
--L------------|--3------------|--L------------|--5------------|


  H.              Q.     Q.         Q.      Q.        H.            
---------------|----------------|------------------|---------------|
---------------|----------------|------------------|---------------|
---------------|----------------|------------------|---------------|
--L------------|--9-------------|----------12------|--2------------|
--L------------|--7------9------|--10------10------|--2------------|
--L------------|---------7------|---8--------------|--0------------|


  H.              H.              H.              H.            
---------------|---------------|---------------|---------------|
---------------|---------------|---------------|---------------|
---------------|---------------|---------------|---------------|
--L------------|--5------------|--L------------|--7------------|
--L------------|--5------------|--L------------|--7------------|
--L------------|--3------------|--L------------|--5------------|


  H.               H.               Q.      Q.        H.            
---------------|----------------|------------------|---------------|
---------------|----------------|------------------|---------------|
---------------|----------------|------------------|---------------|
--L------------|--12------------|--11--------------|--2------------|
--L------------|--10------------|---9------12------|--2------------|
--L------------|----------------|----------10------|--0------------|


  H.              H.              H.              H.            
---------------|---------------|---------------|---------------|
---------------|---------------|---------------|---------------|
---------------|---------------|---------------|--7------------|
--L------------|--5------------|--L------------|--7------------|
--L------------|--5------------|--L------------|--5------------|
--L------------|--3------------|--L------------|---------------|


  H.              H.              H.              H.            
---------------|---------------|---------------|---------------|
---------------|---------------|---------------|---------------|
--L------------|--5------------|--7------------|---------------|
--L------------|--5------------|--7------------|--2------------|
--L------------|--3------------|--5------------|--2------------|
---------------|---------------|---------------|--0------------|


  H.              H.              H.              H.            
---------------|---------------|---------------|---------------|
---------------|---------------|---------------|---------------|
---------------|---------------|---------------|--7------------|
--L------------|--5------------|--L------------|--7------------|
--L------------|--5------------|--L------------|--5------------|
--L------------|--3------------|--L------------|---------------|


  H.              H.              H.            
---------------|---------------|---------------|
---------------|---------------|---------------|
--L------------|--5------------|--7------------|
--L------------|--5------------|--7------------|
--L------------|--3------------|--5------------|
---------------|---------------|---------------|


  S S S S S S S S S S S S    S S S S S S S S S S S S  
--------------------------|--------------------------|
--------------------------|--------------------------|
--------------------------|--------------------------|
--9-9-9-9-9-9-------------|--------------------------|
--------------------------|--9-9-9-9-9-9-------------|
--------------7-7-7-7-7-7-|--------------7-7-7-7-7-7-|


  S S S S S S  S  S  S  S S S     S  S  S  S  S  S S S S S S S  
------------------------------|--------------------------------|
------------------------------|--------------------------------|
------------------------------|--------------------------------|
--9-9-9-9-9-9-----------------|--------------------------------|
--------------------------9-9-|--10-10-10-10-10-10-9-9-9-9-9-9-|
--------------10-10-10-10-----|--------------------------------|


  S S S S S S S S S S S S    S S S S S S S S S S S S  
--------------------------|--------------------------|
--------------------------|--------------------------|
--------------------------|--------------------------|
--9-9-9-9-9-9-------------|--------------------------|
--------------------------|--9-9-9-9-9-9-------------|
--------------7-7-7-7-7-7-|--------------7-7-7-7-7-7-|


  S S S S S S  S  S  S  S S S    S S S S S S S S S S S S  
------------------------------|--------------------------|
------------------------------|--------------------------|
------------------------------|--------------------------|
--9-9-9-9-9-9-----------------|--7-7-7-7-7-7-7-7-7-7-7-7-|
--------------------------9-9-|--------------------------|
--------------10-10-10-10-----|--------------------------|


  S S S S S S S S S S S S    S S S S S S S S S S S S  
--------------------------|--------------------------|
--------------------------|--------------------------|
--------------------------|--------------------------|
--9-9-9-9-9-9-------------|--------------------------|
--------------------------|--9-9-9-9-9-9-------------|
--------------7-7-7-7-7-7-|--------------7-7-7-7-7-7-|


  S S S S S S  S  S  S  S S S     S  S  S  S  S  S S S S S S S  
------------------------------|--------------------------------|
------------------------------|--------------------------------|
------------------------------|--------------------------------|
--9-9-9-9-9-9-----------------|--------------------------------|
--------------------------9-9-|--10-10-10-10-10-10-9-9-9-9-9-9-|
--------------10-10-10-10-----|--------------------------------|


  S S S S S S S S S S S S    S S S S S S S S S S S S  
--------------------------|--------------------------|
--------------------------|--------------------------|
--------------------------|--------------------------|
--9-9-9-9-9-9-------------|--------------------------|
--------------------------|--9-9-9-9-9-9-------------|
--------------7-7-7-7-7-7-|--------------7-7-7-7-7-7-|


  S S S S S S  S  S  S  S S S    S S S S S S S S S S S S  
------------------------------|--------------------------|
------------------------------|--------------------------|
------------------------------|--------------------------|
--9-9-9-9-9-9-----------------|--7-7-7-7-7-7-7-7-7-7-7-7-|
--------------------------9-9-|--------------------------|
--------------10-10-10-10-----|--------------------------|


     PM PM PM    PM PM PM       PM PM PM    PM PM PM  
  E  S  S  E  E  S  S  E     E  S  S  E  E  S  S  E   
--------------------------|--------------------------|
--------------------------|--------------------------|
--------------------------|--------------------------|
--------------------------|--------------------------|
--2-----------2-----------|--2-----------2-----------|
--0--0--0--0--0--0--0--0--|-----0--0--0-----0--0--0--|


     PM PM PM    PM PM PM                      
  E  S  S  E  E  S  S  E     E  E  E  Q    E   
--------------------------|-------------------|
--------------------------|-------------------|
--------------------------|-------------------|
--------------------------|----------------5--|
--3-----------3-----------|-----2--3--2-------|
-----0--0--0-----0--0--0--|--3----------------|


     PM PM PM    PM PM PM       PM PM PM    PM PM PM  
  E  S  S  E  E  S  S  E     E  S  S  E  E  S  S  E   
--------------------------|--------------------------|
--------------------------|--------------------------|
--------------------------|--------------------------|
--------------------------|--------------------------|
--2-----------2-----------|--2-----------2-----------|
--0--0--0--0--0--0--0--0--|-----0--0--0-----0--0--0--|


     PM PM PM    PM PM PM                       
  E  S  S  E  E  S  S  E     E  E  E  E  E  E   
--------------------------|--------------------|
--------------------------|--------------------|
--------------------------|--------------------|
--------------------------|--------------------|
--3-----------3-----------|--3--2--0--5--3--2--|
-----0--0--0-----0--0--0--|--------------------|


     PM PM PM    PM PM PM       PM PM PM    PM PM PM  
  E  S  S  E  E  S  S  E     E  S  S  E  E  S  S  E   
--------------------------|--------------------------|
--------------------------|--------------------------|
--------------------------|--------------------------|
--------------------------|--------------------------|
--2-----------2-----------|--2-----------2-----------|
--0--0--0--0--0--0--0--0--|-----0--0--0-----0--0--0--|


     PM PM PM    PM PM PM                      
  E  S  S  E  E  S  S  E     E  E  E  Q    E   
--------------------------|-------------------|
--------------------------|-------------------|
--------------------------|-------------------|
--------------------------|----------------5--|
--3-----------3-----------|-----2--3--2-------|
-----0--0--0-----0--0--0--|--3----------------|


     PM PM PM    PM PM PM       PM PM PM    PM PM PM  
  E  S  S  E  E  S  S  E     E  S  S  E  E  S  S  E   
--------------------------|--------------------------|
--------------------------|--------------------------|
--------------------------|--------------------------|
--------------------------|--------------------------|
--2-----------2-----------|--2-----------2-----------|
--0--0--0--0--0--0--0--0--|-----0--0--0-----0--0--0--|


     PM PM PM    PM PM PM                       
  E  S  S  E  E  S  S  E     E  E  E  E  E  E   
--------------------------|--------------------|
--------------------------|--------------------|
--------------------------|--------------------|
--------------------------|--------------------|
--3-----------3-----------|--3--2--0--5--3--2--|
-----0--0--0-----0--0--0--|--------------------|


     PM PM PM    PM PM PM       PM PM PM    PM PM PM  
  E  S  S  E  E  S  S  E     E  S  S  E  E  S  S  E   
--------------------------|--------------------------|
--------------------------|--------------------------|
--4-----------4-----------|--------------------------|
--------------------------|--4-----------4-----------|
--------------------------|--------------------------|
-----3--3--3-----3--3--3--|-----3--3--3-----3--3--3--|


     PM PM PM    PM PM PM       PM PM PM    PM PM PM  
  E  S  S  E  E  S  S  E     E  S  S  E  E  S  S  E   
--------------------------|--------------------------|
--------------------------|--------------------------|
--------------------------|--------------------------|
--------------------------|--------------------------|
--5-----------5-----------|--5-----------5-----------|
-----3--3--3-----3--3--3--|-----3--3--3-----3--3--3--|


     PM PM PM    PM PM PM       PM PM PM    PM PM PM  
  E  S  S  E  E  S  S  E     E  S  S  E  E  S  S  E   
--------------------------|--------------------------|
--------------------------|--------------------------|
--------------------------|--------------------------|
--9-----------9-----------|--------------------------|
--------------------------|--9-----------9-----------|
-----5--5--5-----5--5--5--|-----5--5--5-----5--5--5--|


     PM PM PM    PM PM PM       PM PM PM         
  E  S  S  E  E  S  S  E     E  S  S  E  Q.      
--------------------------|---------------------|
--------------------------|---------------------|
--------------------------|---------------------|
--7-----------7-----------|--7-----------7------|
--------------------------|--------------7------|
-----5--5--5-----5--5--5--|-----5--5--5--5------|


  S S S S S S S S S S S S    S S S S S S S S S S S S  
--------------------------|--------------------------|
--------------------------|--------------------------|
--------------------------|--------------------------|
--------------------------|--------------------------|
--------------------------|--------------------------|
--0-0-0-0-0-0-0-0-0-0-0-0-|--0-0-0-0-0-0-0-0-0-0-0-0-|


  S S S S S S S S S S S S    S S S S S S S S S S S S  
--------------------------|--------------------------|
--------------------------|--------------------------|
--------------------------|--------------------------|
--------------------------|--------------------------|
--------------------------|--------------------------|
--0-0-0-0-0-0-0-0-0-0-0-0-|--0-0-0-0-0-0-0-0-0-0-0-0-|


  S S S S S S S S S S S S    S S S S S S S S S S S S  
--------------------------|--------------------------|
--------------------------|--------------------------|
--------------------------|--------------------------|
--------------------------|--------------------------|
--------------------------|--------------------------|
--3-3-3-3-3-3-3-3-3-3-3-3-|--3-3-3-3-3-3-3-3-3-3-3-3-|


  S S S S S S S S S S S S    S S S S S S S S S S S S  
--------------------------|--------------------------|
--------------------------|--------------------------|
--------------------------|--------------------------|
--------------------------|--------------------------|
--------------------------|--------------------------|
--3-3-3-3-3-3-3-3-3-3-3-3-|--3-3-3-3-3-3-3-3-3-3-3-3-|


  S S S S S S S S S S S S    S S S S S S S S S S S S  
--------------------------|--------------------------|
--------------------------|--------------------------|
--------------------------|--------------------------|
--------------------------|--------------------------|
--------------------------|--------------------------|
--7-7-7-7-7-7-7-7-7-7-7-7-|--7-7-7-7-7-7-7-7-7-7-7-7-|


  S S S S S S S S S S S S    S S S S S S S S S S S S  
--------------------------|--------------------------|
--------------------------|--------------------------|
--------------------------|--------------------------|
--------------------------|--------------------------|
--------------------------|--------------------------|
--7-7-7-7-7-7-7-7-7-7-7-7-|--5-5-5-5-5-5-5-5-5-5-5-5-|


  S S S S S S S S S S S S    S S S S S S S S S S S S  
--------------------------|--------------------------|
--------------------------|--------------------------|
--------------------------|--------------------------|
--------------------------|--------------------------|
--------------------------|--------------------------|
--7-7-7-7-7-7-7-7-7-7-7-7-|--7-7-7-7-7-7-7-7-7-7-7-7-|


  S S S S S S S S S S S S    S S S S S S S S S S S S  
--------------------------|--------------------------|
--------------------------|--------------------------|
--------------------------|--------------------------|
--------------------------|--------------------------|
--------------------------|--------------------------|
--7-7-7-7-7-7-7-7-7-7-7-7-|--7-7-7-7-7-7-7-7-7-7-7-7-|


  S S S S S S S S S S S S    S S S S S S S S S S S S  
--------------------------|--------------------------|
--------------------------|--------------------------|
--------------------------|--------------------------|
--------------------------|--------------------------|
--------------------------|--------------------------|
--0-0-0-0-0-0-0-0-0-0-0-0-|--0-0-0-0-0-0-0-0-0-0-0-0-|


  S S S S S S S S S S S S    S S S S S S S S S S S S  
--------------------------|--------------------------|
--------------------------|--------------------------|
--------------------------|--------------------------|
--------------------------|--------------------------|
--------------------------|--------------------------|
--0-0-0-0-0-0-0-0-0-0-0-0-|--0-0-0-0-0-0-0-0-0-0-0-0-|


  S S S S S S S S S S S S    S S S S S S S S S S S S  
--------------------------|--------------------------|
--------------------------|--------------------------|
--------------------------|--------------------------|
--------------------------|--------------------------|
--------------------------|--------------------------|
--3-3-3-3-3-3-3-3-3-3-3-3-|--3-3-3-3-3-3-3-3-3-3-3-3-|


  S S S S S S S S S S S S    S S S S S S S S S S S S  
--------------------------|--------------------------|
--------------------------|--------------------------|
--------------------------|--------------------------|
--------------------------|--------------------------|
--------------------------|--------------------------|
--3-3-3-3-3-3-3-3-3-3-3-3-|--3-3-3-3-3-3-3-3-3-3-3-3-|


  S S S S S S S S S S S S    S S S S S S S S S S S S  
--------------------------|--------------------------|
--------------------------|--------------------------|
--------------------------|--------------------------|
--------------------------|--------------------------|
--------------------------|--------------------------|
--7-7-7-7-7-7-7-7-7-7-7-7-|--7-7-7-7-7-7-7-7-7-7-7-7-|


  S S S S S S S S S S S S    S S S S S S S S S S S S  
--------------------------|--------------------------|
--------------------------|--------------------------|
--------------------------|--------------------------|
--------------------------|--------------------------|
--------------------------|--------------------------|
--7-7-7-7-7-7-7-7-7-7-7-7-|--5-5-5-5-5-5-5-5-5-5-5-5-|


  S S S S S S S S S S S S    S S S S S S S S S S S S  
--------------------------|--------------------------|
--------------------------|--------------------------|
--------------------------|--------------------------|
--------------------------|--------------------------|
--------------------------|--------------------------|
--7-7-7-7-7-7-7-7-7-7-7-7-|--7-7-7-7-7-7-7-7-7-7-7-7-|


  S S S S S S S S S S S S    S S S S S S S S S S S S    H.            
--------------------------|--------------------------|---------------|
--------------------------|--------------------------|---------------|
--------------------------|--------------------------|---------------|
--------------------------|--------------------------|--2------------|
--------------------------|--------------------------|--2------------|
--7-7-7-7-7-7-7-7-7-7-7-7-|--7-7-7-7-7-7-7-7-7-7-7-7-|--0------------|


  H.              H.              H.              H.            
---------------|---------------|---------------|---------------|
---------------|---------------|---------------|---------------|
---------------|---------------|---------------|---------------|
--L------------|--L------------|--L------------|--L------------|
--L------------|--L------------|--L------------|--L------------|
--L------------|--L------------|--L------------|--L------------|


                                                  PM PM PM PM PM PM  
  H.              H.              H.              E  E  E  E  E  E   
---------------|---------------|---------------|--------------------|
---------------|---------------|---------------|--------------------|
---------------|---------------|---------------|--------------------|
--L------------|--L------------|--L------------|--------------------|
--L------------|--L------------|--L------------|--------------------|
--L------------|--L------------|--L------------|--0--0--0--0--0--0--|


  PM PM PM PM PM PM    PM PM PM PM PM PM    PM PM PM PM PM PM  
  E  E  E  E  E  E     E  E  E  E  E  E     E  E  E  E  E  E   
--------------------|--------------------|--------------------|
--------------------|--------------------|--------------------|
--------------------|--------------------|--------------------|
--------------------|--------------------|--------------------|
--------------------|--------------------|--------------------|
--0--0--0--0--0--0--|--3--3--3--3--3--3--|--3--3--3--3--3--3--|


  PM PM PM PM PM PM    PM PM PM PM PM PM    PM PM PM PM PM PM  
  E  E  E  E  E  E     E  E  E  E  E  E     E  E  E  E  E  E   
--------------------|--------------------|--------------------|
--------------------|--------------------|--------------------|
--------------------|--------------------|--------------------|
--------------------|--------------------|--------------------|
--------------------|--------------------|--------------------|
--3--3--3--3--3--3--|--3--3--3--3--3--3--|--3--3--3--3--3--3--|


  PM PM PM PM PM PM    PM PM PM PM PM PM    PM PM PM PM PM PM  
  E  E  E  E  E  E     E  E  E  E  E  E     E  E  E  E  E  E   
--------------------|--------------------|--------------------|
--------------------|--------------------|--------------------|
--------------------|--------------------|--------------------|
--------------------|--------------------|--------------------|
--------------------|--------------------|--------------------|
--3--3--3--3--3--3--|--0--0--0--0--0--0--|--0--0--0--0--0--0--|


  PM PM PM PM PM PM    PM PM PM PM PM PM    PM PM PM PM PM PM  
  E  E  E  E  E  E     E  E  E  E  E  E     E  E  E  E  E  E   
--------------------|--------------------|--------------------|
--------------------|--------------------|--------------------|
--------------------|--------------------|--------------------|
--------------------|--------------------|--------------------|
--------------------|--------------------|--------------------|
--3--3--3--3--3--3--|--3--3--3--3--3--3--|--3--3--3--3--3--3--|


  PM PM PM PM PM PM    PM PM PM PM PM PM    PM PM PM PM PM PM  
  E  E  E  E  E  E     E  E  E  E  E  E     E  E  E  E  E  E   
--------------------|--------------------|--------------------|
--------------------|--------------------|--------------------|
--------------------|--------------------|--------------------|
--------------------|--------------------|--------------------|
--------------------|--------------------|--------------------|
--3--3--3--3--3--3--|--3--3--3--3--3--3--|--3--3--3--3--3--3--|


  PM PM PM PM PM PM    PM PM PM PM PM PM    PM PM PM PM PM PM  
  E  E  E  E  E  E     E  E  E  E  E  E     E  E  E  E  E  E   
--------------------|--------------------|--------------------|
--------------------|--------------------|--------------------|
--------------------|--------------------|--------------------|
--------------------|--------------------|--------------------|
--------------------|--------------------|--------------------|
--0--0--0--0--0--0--|--0--0--0--0--0--0--|--3--3--3--3--3--3--|


  PM PM PM PM PM PM    PM PM PM PM PM PM    PM PM PM PM PM PM  
  E  E  E  E  E  E     E  E  E  E  E  E     E  E  E  E  E  E   
--------------------|--------------------|--------------------|
--------------------|--------------------|--------------------|
--------------------|--------------------|--------------------|
--------------------|--------------------|--------------------|
--------------------|--------------------|--------------------|
--3--3--3--3--3--3--|--3--3--3--3--3--3--|--3--3--3--3--3--3--|


  PM PM PM PM PM PM    PM PM PM PM PM PM                  
  E  E  E  E  E  E     E  E  E  E  E  E     H.            
--------------------|--------------------|---------------|
--------------------|--------------------|---------------|
--------------------|--------------------|---------------|
--------------------|--------------------|--2------------|
--------------------|--------------------|--2------------|
--3--3--3--3--3--3--|--3--3--3--3--3--3--|--0------------|


  H.              H.              H.              H.            
---------------|---------------|---------------|---------------|
---------------|---------------|---------------|---------------|
---------------|---------------|---------------|---------------|
--L------------|--5------------|--L------------|--7------------|
--L------------|--5------------|--L------------|--7------------|
--L------------|--3------------|--L------------|--5------------|


  H.              Q.     Q.         Q.      Q.        H.            
---------------|----------------|------------------|---------------|
---------------|----------------|------------------|---------------|
---------------|----------------|------------------|---------------|
--L------------|--9-------------|----------12------|--2------------|
--L------------|--7------9------|--10------10------|--2------------|
--L------------|---------7------|---8--------------|--0------------|


  H.              H.              H.              H.            
---------------|---------------|---------------|---------------|
---------------|---------------|---------------|---------------|
---------------|---------------|---------------|---------------|
--L------------|--5------------|--L------------|--7------------|
--L------------|--5------------|--L------------|--7------------|
--L------------|--3------------|--L------------|--5------------|


  H.               H.               Q.      Q.        H.            
---------------|----------------|------------------|---------------|
---------------|----------------|------------------|---------------|
---------------|----------------|------------------|---------------|
--L------------|--12------------|--11--------------|--2------------|
--L------------|--10------------|---9------12------|--2------------|
--L------------|----------------|----------10------|--0------------|


  H.              H.              H.              H.            
---------------|---------------|---------------|---------------|
---------------|---------------|---------------|---------------|
---------------|---------------|---------------|--7------------|
--L------------|--5------------|--L------------|--7------------|
--L------------|--5------------|--L------------|--5------------|
--L------------|--3------------|--L------------|---------------|


  H.              H.              H.              H.            
---------------|---------------|---------------|---------------|
---------------|---------------|---------------|---------------|
--L------------|--5------------|--7------------|---------------|
--L------------|--5------------|--7------------|--2------------|
--L------------|--3------------|--5------------|--2------------|
---------------|---------------|---------------|--0------------|


  H.              H.              H.              H.            
---------------|---------------|---------------|---------------|
---------------|---------------|---------------|---------------|
---------------|---------------|---------------|--7------------|
--L------------|--5------------|--L------------|--7------------|
--L------------|--5------------|--L------------|--5------------|
--L------------|--3------------|--L------------|---------------|


  H.              H.              H.              H.            
---------------|---------------|---------------|---------------|
---------------|---------------|---------------|---------------|
--L------------|--5------------|--7------------|---------------|
--L------------|--5------------|--7------------|--2------------|
--L------------|--3------------|--5------------|--2------------|
---------------|---------------|---------------|--0------------|


  H.              H.              H.              H.            
---------------|---------------|---------------|---------------|
---------------|---------------|---------------|---------------|
---------------|---------------|---------------|--7------------|
--L------------|--5------------|--L------------|--7------------|
--L------------|--5------------|--L------------|--5------------|
--L------------|--3------------|--L------------|---------------|


  H.              H.              H.              H.            
---------------|---------------|---------------|---------------|
---------------|---------------|---------------|---------------|
--L------------|--5------------|--7------------|---------------|
--L------------|--5------------|--7------------|--2------------|
--L------------|--3------------|--5------------|--2------------|
---------------|---------------|---------------|--0------------|


  H.              H.              H.              H.            
---------------|---------------|---------------|---------------|
---------------|---------------|---------------|---------------|
---------------|---------------|---------------|--7------------|
--L------------|--5------------|--L------------|--7------------|
--L------------|--5------------|--L------------|--5------------|
--L------------|--3------------|--L------------|---------------|


  H.              H.              H.              H.            
---------------|---------------|---------------|---------------|
---------------|---------------|---------------|---------------|
--L------------|--5------------|--7------------|---------------|
--L------------|--5------------|--7------------|--2------------|
--L------------|--3------------|--5------------|--2------------|
---------------|---------------|---------------|--0------------|


  H.              H.              H.              H.            
---------------|---------------|---------------|---------------|
---------------|---------------|---------------|---------------|
---------------|---------------|---------------|---------------|
--L------------|--L------------|--L------------|--L------------|
--L------------|--L------------|--L------------|--L------------|
--L------------|--L------------|--L------------|--L------------|


  H.             
---------------||
---------------||
---------------||
--L------------||
--L------------||
--L------------||


Ad. Git



B ||-------|-------|-------|-------|-------|-------|-------|-------|
F#||-------|-------|-------|-------|-------|-------|-------|-------|
D ||-------|-------|-------|-------|-------|-------|-------|-------|
A ||-------|-------|-------|-------|-------|-------|-------|-------|
E ||-------|-------|-------|-------|-------|-------|-------|-------|
B ||-------|-------|-------|-------|-------|-------|-------|-------|


-------|-------|-------|-------|-------|-------|-------|-------|
-------|-------|-------|-------|-------|-------|-------|-------|
-------|-------|-------|-------|-------|-------|-------|-------|
-------|-------|-------|-------|-------|-------|-------|-------|
-------|-------|-------|-------|-------|-------|-------|-------|
-------|-------|-------|-------|-------|-------|-------|-------|


-------|-------|-------|-------|-------|-------|-------|-------|
-------|-------|-------|-------|-------|-------|-------|-------|
-------|-------|-------|-------|-------|-------|-------|-------|
-------|-------|-------|-------|-------|-------|-------|-------|
-------|-------|-------|-------|-------|-------|-------|-------|
-------|-------|-------|-------|-------|-------|-------|-------|


-------|-------|-------|-------|-------|-------|-------|-------|
-------|-------|-------|-------|-------|-------|-------|-------|
-------|-------|-------|-------|-------|-------|-------|-------|
-------|-------|-------|-------|-------|-------|-------|-------|
-------|-------|-------|-------|-------|-------|-------|-------|
-------|-------|-------|-------|-------|-------|-------|-------|


-------|-------|-------|-------|-------|-------|-------|-------|
-------|-------|-------|-------|-------|-------|-------|-------|
-------|-------|-------|-------|-------|-------|-------|-------|
-------|-------|-------|-------|-------|-------|-------|-------|
-------|-------|-------|-------|-------|-------|-------|-------|
-------|-------|-------|-------|-------|-------|-------|-------|


-------|-------|-------|-------|-------|-------|-------|-------|
-------|-------|-------|-------|-------|-------|-------|-------|
-------|-------|-------|-------|-------|-------|-------|-------|
-------|-------|-------|-------|-------|-------|-------|-------|
-------|-------|-------|-------|-------|-------|-------|-------|
-------|-------|-------|-------|-------|-------|-------|-------|


-------|-------|-------|-------|-------|-------|-------|-------|
-------|-------|-------|-------|-------|-------|-------|-------|
-------|-------|-------|-------|-------|-------|-------|-------|
-------|-------|-------|-------|-------|-------|-------|-------|
-------|-------|-------|-------|-------|-------|-------|-------|
-------|-------|-------|-------|-------|-------|-------|-------|


-------|-------|-------|-------|-------|-------|-------|-------|
-------|-------|-------|-------|-------|-------|-------|-------|
-------|-------|-------|-------|-------|-------|-------|-------|
-------|-------|-------|-------|-------|-------|-------|-------|
-------|-------|-------|-------|-------|-------|-------|-------|
-------|-------|-------|-------|-------|-------|-------|-------|


-------|-------|-------|-------|-------|-------|-------|-------|
-------|-------|-------|-------|-------|-------|-------|-------|
-------|-------|-------|-------|-------|-------|-------|-------|
-------|-------|-------|-------|-------|-------|-------|-------|
-------|-------|-------|-------|-------|-------|-------|-------|
-------|-------|-------|-------|-------|-------|-------|-------|


-------|-------|-------|-------|-------|-------|-------|-------|
-------|-------|-------|-------|-------|-------|-------|-------|
-------|-------|-------|-------|-------|-------|-------|-------|
-------|-------|-------|-------|-------|-------|-------|-------|
-------|-------|-------|-------|-------|-------|-------|-------|
-------|-------|-------|-------|-------|-------|-------|-------|


-------|-------|-------|-------|-------|-------|-------|-------|
-------|-------|-------|-------|-------|-------|-------|-------|
-------|-------|-------|-------|-------|-------|-------|-------|
-------|-------|-------|-------|-------|-------|-------|-------|
-------|-------|-------|-------|-------|-------|-------|-------|
-------|-------|-------|-------|-------|-------|-------|-------|


-------|-------|-------|-------|-------|-------|-------|-------|
-------|-------|-------|-------|-------|-------|-------|-------|
-------|-------|-------|-------|-------|-------|-------|-------|
-------|-------|-------|-------|-------|-------|-------|-------|
-------|-------|-------|-------|-------|-------|-------|-------|
-------|-------|-------|-------|-------|-------|-------|-------|


-------|-------|-------|-------|-------|-------|-------|-------|
-------|-------|-------|-------|-------|-------|-------|-------|
-------|-------|-------|-------|-------|-------|-------|-------|
-------|-------|-------|-------|-------|-------|-------|-------|
-------|-------|-------|-------|-------|-------|-------|-------|
-------|-------|-------|-------|-------|-------|-------|-------|


-------|-------|-------|-------|-------|-------|-------|-------|
-------|-------|-------|-------|-------|-------|-------|-------|
-------|-------|-------|-------|-------|-------|-------|-------|
-------|-------|-------|-------|-------|-------|-------|-------|
-------|-------|-------|-------|-------|-------|-------|-------|
-------|-------|-------|-------|-------|-------|-------|-------|


-------|-------|-------|-------|-------|-------|-------|-------|
-------|-------|-------|-------|-------|-------|-------|-------|
-------|-------|-------|-------|-------|-------|-------|-------|
-------|-------|-------|-------|-------|-------|-------|-------|
-------|-------|-------|-------|-------|-------|-------|-------|
-------|-------|-------|-------|-------|-------|-------|-------|


-------|-------|-------|-------|-------|-------|-------|-------|
-------|-------|-------|-------|-------|-------|-------|-------|
-------|-------|-------|-------|-------|-------|-------|-------|
-------|-------|-------|-------|-------|-------|-------|-------|
-------|-------|-------|-------|-------|-------|-------|-------|
-------|-------|-------|-------|-------|-------|-------|-------|


-------|-------|-------|-------|-------|-------|-------|-------|
-------|-------|-------|-------|-------|-------|-------|-------|
-------|-------|-------|-------|-------|-------|-------|-------|
-------|-------|-------|-------|-------|-------|-------|-------|
-------|-------|-------|-------|-------|-------|-------|-------|
-------|-------|-------|-------|-------|-------|-------|-------|


-------|-------|-------|-------|-------|-------|-------|-------|
-------|-------|-------|-------|-------|-------|-------|-------|
-------|-------|-------|-------|-------|-------|-------|-------|
-------|-------|-------|-------|-------|-------|-------|-------|
-------|-------|-------|-------|-------|-------|-------|-------|
-------|-------|-------|-------|-------|-------|-------|-------|


-------|-------|-------|-------|-------|-------|-------|-------|
-------|-------|-------|-------|-------|-------|-------|-------|
-------|-------|-------|-------|-------|-------|-------|-------|
-------|-------|-------|-------|-------|-------|-------|-------|
-------|-------|-------|-------|-------|-------|-------|-------|
-------|-------|-------|-------|-------|-------|-------|-------|


-------|-------|-------|-------|-------|-------|-------|-------|
-------|-------|-------|-------|-------|-------|-------|-------|
-------|-------|-------|-------|-------|-------|-------|-------|
-------|-------|-------|-------|-------|-------|-------|-------|
-------|-------|-------|-------|-------|-------|-------|-------|
-------|-------|-------|-------|-------|-------|-------|-------|


-------|-------|-------|-------|-------|-------|-------|-------|
-------|-------|-------|-------|-------|-------|-------|-------|
-------|-------|-------|-------|-------|-------|-------|-------|
-------|-------|-------|-------|-------|-------|-------|-------|
-------|-------|-------|-------|-------|-------|-------|-------|
-------|-------|-------|-------|-------|-------|-------|-------|


-------|-------|-------|-------|-------|-------|-------|-------|
-------|-------|-------|-------|-------|-------|-------|-------|
-------|-------|-------|-------|-------|-------|-------|-------|
-------|-------|-------|-------|-------|-------|-------|-------|
-------|-------|-------|-------|-------|-------|-------|-------|
-------|-------|-------|-------|-------|-------|-------|-------|


-------|-------|-------|-------|-------|-------|-------|-------|
-------|-------|-------|-------|-------|-------|-------|-------|
-------|-------|-------|-------|-------|-------|-------|-------|
-------|-------|-------|-------|-------|-------|-------|-------|
-------|-------|-------|-------|-------|-------|-------|-------|
-------|-------|-------|-------|-------|-------|-------|-------|


-------|-------|-------|-------|-------|-------|-------|-------|
-------|-------|-------|-------|-------|-------|-------|-------|
-------|-------|-------|-------|-------|-------|-------|-------|
-------|-------|-------|-------|-------|-------|-------|-------|
-------|-------|-------|-------|-------|-------|-------|-------|
-------|-------|-------|-------|-------|-------|-------|-------|


-------|-------|-------|-------|-------|-------|-------|-------|
-------|-------|-------|-------|-------|-------|-------|-------|
-------|-------|-------|-------|-------|-------|-------|-------|
-------|-------|-------|-------|-------|-------|-------|-------|
-------|-------|-------|-------|-------|-------|-------|-------|
-------|-------|-------|-------|-------|-------|-------|-------|


-------|-------|-------|-------|-------|-------|-------|-------|
-------|-------|-------|-------|-------|-------|-------|-------|
-------|-------|-------|-------|-------|-------|-------|-------|
-------|-------|-------|-------|-------|-------|-------|-------|
-------|-------|-------|-------|-------|-------|-------|-------|
-------|-------|-------|-------|-------|-------|-------|-------|


-------|-------|-------|-------|-------|-------|-------|-------|
-------|-------|-------|-------|-------|-------|-------|-------|
-------|-------|-------|-------|-------|-------|-------|-------|
-------|-------|-------|-------|-------|-------|-------|-------|
-------|-------|-------|-------|-------|-------|-------|-------|
-------|-------|-------|-------|-------|-------|-------|-------|


-------|-------|-------|-------|-------|-------|-------|
-------|-------|-------|-------|-------|-------|-------|
-------|-------|-------|-------|-------|-------|-------|
-------|-------|-------|-------|-------|-------|-------|
-------|-------|-------|-------|-------|-------|-------|
-------|-------|-------|-------|-------|-------|-------|


   E  E  E   E  E  E     Q.     Q.        Q.     Q.      
----------------------|----------------|----------------|
----------------------|----------------|----------------|
----------------------|----------------|----------------|
----------------------|--9------9------|--9------9------|
--10--9--7--10--9--7--|----------------|----------------|
----------------------|----------------|----------------|


  Q.     Q.        Q.     Q.         Q.      Q.      
----------------|----------------|------------------|
----------------|----------------|------------------|
----------------|----------------|------------------|
--9------9------|--9------9------|--12------12------|
----------------|----------------|------------------|
----------------|----------------|------------------|


   Q.      Q.        Q.     Q.        Q.     Q.        Q.     Q.      
------------------|----------------|----------------|----------------|
------------------|----------------|----------------|----------------|
------------------|----------------|----------------|----------------|
--12------12------|--9------9------|--9------7------|--9------9------|
------------------|----------------|----------------|----------------|
------------------|----------------|----------------|----------------|


  Q.     Q.        Q.     Q.        Q.     Q.         Q.      Q.      
----------------|----------------|----------------|------------------|
----------------|----------------|----------------|------------------|
----------------|----------------|----------------|------------------|
--9------9------|--9------9------|--9------9------|--12------12------|
----------------|----------------|----------------|------------------|
----------------|----------------|----------------|------------------|


   Q.      Q.        Q.     Q.        Q.     Q.        Q.     Q.      
------------------|----------------|----------------|----------------|
------------------|----------------|----------------|----------------|
------------------|----------------|----------------|----------------|
--12------12------|--9------9------|--9------7------|--9------9------|
------------------|----------------|----------------|----------------|
------------------|----------------|----------------|----------------|


  Q.     Q.        Q.     Q.        Q.     Q.         Q.      Q.      
----------------|----------------|----------------|------------------|
----------------|----------------|----------------|------------------|
----------------|----------------|----------------|------------------|
--9------9------|--9------9------|--9------9------|--12------12------|
----------------|----------------|----------------|------------------|
----------------|----------------|----------------|------------------|


   Q.      Q.        Q.     Q.        Q.     Q.        Q.     Q.      
------------------|----------------|----------------|----------------|
------------------|----------------|----------------|----------------|
------------------|----------------|----------------|----------------|
--12------12------|--9------9------|--9------7------|--9------9------|
------------------|----------------|----------------|----------------|
------------------|----------------|----------------|----------------|


  Q.     Q.        Q.     Q.        Q.     Q.         Q.      Q.      
----------------|----------------|----------------|------------------|
----------------|----------------|----------------|------------------|
----------------|----------------|----------------|------------------|
--9------9------|--9------9------|--9------9------|--12------12------|
----------------|----------------|----------------|------------------|
----------------|----------------|----------------|------------------|


   Q.      Q.        Q.     Q.        Q.     Q.                      
------------------|----------------|----------------|-------|-------|
------------------|----------------|----------------|-------|-------|
------------------|----------------|----------------|-------|-------|
--12------12------|--9------9------|--9------7------|-------|-------|
------------------|----------------|----------------|-------|-------|
------------------|----------------|----------------|-------|-------|


-------|-------|-------|-------|-------|-------|-------|-------|
-------|-------|-------|-------|-------|-------|-------|-------|
-------|-------|-------|-------|-------|-------|-------|-------|
-------|-------|-------|-------|-------|-------|-------|-------|
-------|-------|-------|-------|-------|-------|-------|-------|
-------|-------|-------|-------|-------|-------|-------|-------|


-------|-------|-------|-------|-------|-------|-------|-------|
-------|-------|-------|-------|-------|-------|-------|-------|
-------|-------|-------|-------|-------|-------|-------|-------|
-------|-------|-------|-------|-------|-------|-------|-------|
-------|-------|-------|-------|-------|-------|-------|-------|
-------|-------|-------|-------|-------|-------|-------|-------|


-------|-------|-------|-------|-------|-------|-------|-------|
-------|-------|-------|-------|-------|-------|-------|-------|
-------|-------|-------|-------|-------|-------|-------|-------|
-------|-------|-------|-------|-------|-------|-------|-------|
-------|-------|-------|-------|-------|-------|-------|-------|
-------|-------|-------|-------|-------|-------|-------|-------|


-------|-------|-------|-------|-------|-------|
-------|-------|-------|-------|-------|-------|
-------|-------|-------|-------|-------|-------|
-------|-------|-------|-------|-------|-------|
-------|-------|-------|-------|-------|-------|
-------|-------|-------|-------|-------|-------|


  PM  PM  PM  PM  PM PM     PM  PM PM  PM  PM PM  
  E   E   E   E   E  E      E   E  E   E   E  E   
------------------------|------------------------|
--8--10--12--12--10--8--|--12--10--8--12--10--8--|
------------------------|------------------------|
------------------------|------------------------|
------------------------|------------------------|
------------------------|------------------------|


  PM  PM  PM  PM  PM PM     PM  PM PM  PM  PM PM  
  E   E   E   E   E  E      E   E  E   E   E  E   
------------------------|------------------------|
--8--10--12--12--10--8--|--12--10--8--12--10--8--|
------------------------|------------------------|
------------------------|------------------------|
------------------------|------------------------|
------------------------|------------------------|


   PM  PM  PM  PM  PM  PM     PM  PM  PM  PM  PM  PM  
   E   E   E   E   E   E      E   E   E   E   E   E   
--------------------------|--------------------------|
--10--12--13--13--12--10--|--13--12--10--13--12--10--|
--------------------------|--------------------------|
--------------------------|--------------------------|
--------------------------|--------------------------|
--------------------------|--------------------------|


   PM  PM  PM  PM  PM  PM     PM  PM  PM  PM  PM  PM  
   E   E   E   E   E   E      E   E   E   E   E   E   
--------------------------|--------------------------|
--10--12--13--13--12--10--|--13--12--10--13--12--10--|
--------------------------|--------------------------|
--------------------------|--------------------------|
--------------------------|--------------------------|
--------------------------|--------------------------|


  E   E   E   E   E  E      E   E  E   E   E  E   
------------------------|------------------------|
--8--10--12--12--10--8--|--12--10--8--12--10--8--|
------------------------|------------------------|
------------------------|------------------------|
------------------------|------------------------|
------------------------|------------------------|


  E   E   E   E   E  E      E   E  E   E   E  E   
------------------------|------------------------|
--8--10--12--12--10--8--|--12--10--8--12--10--8--|
------------------------|------------------------|
------------------------|------------------------|
------------------------|------------------------|
------------------------|------------------------|


   E   E   E   E   E   E      E   E   E   E   E   E   
--------------------------|--------------------------|
--10--12--13--13--12--10--|--13--12--10--13--12--10--|
--------------------------|--------------------------|
--------------------------|--------------------------|
--------------------------|--------------------------|
--------------------------|--------------------------|


   E   E   E   E   E   E      E   E   E   E   E   E   
--------------------------|--------------------------|
--10--12--13--13--12--10--|--13--12--10--13--12--10--|
--------------------------|--------------------------|
--------------------------|--------------------------|
--------------------------|--------------------------|
--------------------------|--------------------------|


   H.              H.              H.              H.            
----------------|---------------|---------------|---------------|
----------------|---------------|---------------|---------------|
--12------------|--L------------|--L------------|--L------------|
----------------|---------------|---------------|---------------|
----------------|---------------|---------------|---------------|
----------------|---------------|---------------|---------------|


  H.              H.             
---------------|---------------||
---------------|---------------||
--L------------|--L------------||
---------------|---------------||
---------------|---------------||
---------------|---------------||

comments
We did not receive enough feedback on this tab! Please rate:
print report bad tab
1 2 3 4 5
I want to post or [tab]
guest
You may want to rate the tab now too:
select rating
Please do not post tabs as comments. Select "correction" instead!