Oops, an error
Loading. Please wait.

Risen From The Sea Tab

ver2
ver2

Whole song

Interactive

More versions @911Tabs.com
1,341 views 1 this week
no commentswrite comment
1 2 3 4 5
accurate
x 1
Autoscroll
+/-
esc
set tempo
stop
Contributor
Difficulty
intermediate
NEW! There's an official Ultimate Guitar app which is ideal
for learning songs when you're away from computer. Get the app
WARNING: You are trying to view
                                    content from Ultimate-Guitar.com
                                    in an unauthorized application,
                                    which is prohibited.

                                    Please use an official Ultimate
                                    Guitar Tabs application for iPhone,
                                    iPad or Android to access legitimate
                                    chords, guitar, bass, and drum tabs
                                    from Ultimate-Guitar.com database.

                                    Type "ultimate guitar tabs" in Apple
                                    App Store's or Android Market's
                                    search to find the application.
#----------------------------------PLEASE NOTE---------------------------------#
#This file is the author's own work and represents their interpretation of the #
#song. You may only use this file for private study, scholarship, or research. #
#------------------------------------------------------------------------------##


Gtr I (B E A D F# B) - 'Untitled'
Gtr II (B E A D F# B) - 'Untitled'

  Q=200
 3/4
  Gtr I
  S S S S S S S S S S S S   S S S S S S S S S S S S
|-------------------------|-------------------------|
|-------------------------|-------------------------|
|-------------4-4-4-4-4-4-|-------------------------|
|-2-2-2-2-2-2-------------|-5-5-5-5-5-5-4-4-4-4-4-4-|
|-------------------------|-------------------------|
|-------------------------|-------------------------|


  S S S S S S S S S S S S   S S S S S S S S S S S S
|-------------------------|---------------------------|
|-------------------------|---------------------------|
|-------------------------|---------------------------|
|-5-5-4-4-2-2-5-5-4-4-2-2-|-5-5-4-4-2-2-5-5-4-4-2-2---|
|-------------------------|---------------------------|
|-------------------------|---------------------------|


  Gtr I
  H.    +Q.  E E E   H.     Q.  Q.
|-----|------------|-----|------------|
|-----|------------|-----|------------|
|-5---|-(5)--4-5-4-|-2---|------------|
|-----|------------|-----|--4---5-----|
|-----|------------|-----|------------|
|-----|------------|-----|------------|
|
| Gtr II
| H.    +H.          H.     Q.  Q.
|-----|------------|-----|------------|
|-----|------------|-----|------------|
|-----|------------|-----|------------|
|-5---|-(5)--------|-2---|--4---5-----|
|-3---|-(3)--------|-0---|--2---3-----|
|-----|------------|-----|------------|


    Gtrs I, II
    S S S S S S S S S S S S   S S S S S S S S S S S S
||--------------------------|-------------------------|
||o-------------------------|-------------------------|
||--------------4-4-4-4-4-4-|-------------------------|
||--2-2-2-2-2-2-------------|-5-5-5-5-5-5-4-4-4-4-4-4-|
||o-------------------------|-------------------------|
||--------------------------|-------------------------|


  S S S S S S S S S S S S   S S S S S S S S S S S S
|-------------------------|----------------------------|
|-------------------------|----------------------------|
|-------------------------|----------------------------|
|-5-5-4-4-2-2-5-5-4-4-2-2-|-5-5-4-4-2-2-5-5-4-4-2-2----|
|-------------------------|----------------------------|
|-------------------------|----------------------------|


 4/4
  Q.   E E E Q    +E  E E E Q.   E   E E Q.   Q.
|---------------|------------------|----------------||
|---------------|------------------|---------------o||
|---------------|------------------|----------------||
|-5----------5--|-(5)-------2------|-----4----5-----||
|-3----3-3-3-3--|-(3)-3-3-3-0----0-|-0-0-2----3----o||
|---------------|------------------|----------------||


    Gtr II
    Q.   E E E Q    +E  E E E E E E E   E E E E E E E E
||----------------|-------------------|-----------------|
||o---------------|-------------------|-----------------|
||----------------|-------------------|-----------------|
||----------------|-------------------|-----------------|
||o-2----------2--|-(2)-------5-4-2-5-|-4-2-5-4-2-5-4-2-|
||--0----0-0-0-0--|-(0)-0-0-0-3-2-0-3-|-2-0-3-2-0-3-2-0-|


  Q.   E E E Q    +E  E E E Q.   E   E E Q.   Q.     4x
|---------------|------------------|-----------------||
|---------------|------------------|----------------o||
|---------------|------------------|-----------------||
|-5----------5--|-(5)-------2------|-----4----5------||
|-3----3-3-3-3--|-(3)-3-3-3-0----0-|-0-0-2----3-----o||
|---------------|------------------|-----------------||


    Gtrs I, II
    S S S S S S S S S S S S S S S S
||----------------------------------|
||o---------------------------------|
||--------------4-4-4-4-4-4---------|
||--2-2-2-2-2-2-------------5-5-5-5-|
||o---------------------------------|
||----------------------------------|


  S S S S S S S S S S S S S S S S   S S S S S S S S S S S S S S S S
|---------------------------------|---------------------------------|
|---------------------------------|---------------------------------|
|---------------------------------|---------------------------------|
|-5-5-4-4-4-4-4-4-5-5-4-4-2-2-5-5-|-4-4-2-2-5-5-4-4-2-2-5-5-4-4-2-2-|
|---------------------------------|---------------------------------|
|---------------------------------|---------------------------------|


  Q.   E E E Q    +E  E E E Q.   E   E E Q.   Q.
|---------------|------------------|----------------||
|---------------|------------------|---------------o||
|---------------|------------------|----------------||
|-5----------5--|-(5)-------2------|-----4----5-----||
|-3----3-3-3-3--|-(3)-3-3-3-0----0-|-0-0-2----3----o||
|---------------|------------------|----------------||


 4/4
  Gtr I
  S S S S S S S S S S S S S S S S    S  S S S S S S S S S S S S S S S
|---------------------------------|-----------------------------------|
|---------------------------------|-----------------------------------|
|-----------------5-5-5-5-5-5-5-5-|--4--4-4-4-4-4-4-4-----------------|
|-2-2-2-2-2-2-2-2-----------------|-------------------5-5-5-5-4-4-4-4-|
|---------------------------------|-----------------------------------|
|---------------------------------|-----------------------------------|
|
| Gtr II
| W                                 +W
|---------------------------------|-----------------------------------|
|---------------------------------|-----------------------------------|
|---------------------------------|-----------------------------------|
|-9-------------------------------|-(9)-------------------------------|
|-7-------------------------------|-(7)-------------------------------|
|---------------------------------|-----------------------------------|


  S S S S S S S S S S S S S S S S    S  S S S S S S S S S S S S S S S
|---------------------------------|-------------------------------------|
|---------------------------------|-------------------------------------|
|-----------------5-5-5-5-5-5-5-5-|--4--4-4-4-4-4-4-4-------------------|
|-0-0-0-0-0-0-0-0-----------------|-------------------5-5-5-5-4-4-4-4---|
|---------------------------------|-------------------------------------|
|---------------------------------|-------------------------------------|
|
| W                                 +W
|---------------------------------|-------------------------------------|
|---------------------------------|-------------------------------------|
|---------------------------------|-------------------------------------|
|-7-------------------------------|-(7)---------------------------------|
|-5-------------------------------|-(5)---------------------------------|
|---------------------------------|-------------------------------------|


 4/4
  S S S S S S S S S S S S S S S S    S  S S S S S S S S S S S S S S S
|---------------------------------|-----------------------------------|
|---------------------------------|-----------------------------------|
|-----------------5-5-5-5-5-5-5-5-|--4--4-4-4-4-4-4-4-----------------|
|-2-2-2-2-2-2-2-2-----------------|-------------------5-5-5-5-4-4-4-4-|
|---------------------------------|-----------------------------------|
|---------------------------------|-----------------------------------|
|
| W                                 +W
|---------------------------------|-----------------------------------|
|---------------------------------|-----------------------------------|
|---------------------------------|-----------------------------------|
|-9-------------------------------|-(9)-------------------------------|
|-7-------------------------------|-(7)-------------------------------|
|---------------------------------|-----------------------------------|


  S S S S S  S S S S S S S S S S S   S S S S S S S S S S S S S S S S
|----------------------------------|-----------------------------------|
|----------------------------------|-----------------------------------|
|------------------5-5-5-5-5-5-5-5-|-4-4-4-4-4-4-4-4-------------------|
|-0-0-0-0-0--0-0-0-----------------|-----------------5-5-5-5-4-4-4-4---|
|----------------------------------|-----------------------------------|
|----------------------------------|-----------------------------------|
|
| Q       H.                         W
|----------------------------------|-----------------------------------|
|----------------------------------|-----------------------------------|
|----------------------------------|-----------------------------------|
|-7--------------------------------|-----------------------------------|
|-5--------------------------------|-----------------------------------|
|----------------------------------|-----------------------------------|


    Gtrs I, II
    S S S S S S S S S S S S S S S S   S S S S S S S S S S S S S S S S
||----------------------------------|---------------------------------|
||o---------------------------------|---------------------------------|
||------------------5-5-5-5-5-5-5-5-|-4-4-4-4-4-4-4-4-----------------|
||--2-2-2-2-2-2-2-2-----------------|-----------------5-5-5-5-4-4-4-4-|
||o---------------------------------|---------------------------------|
||----------------------------------|---------------------------------|


  S S S S S S S S S S S S S S S S   S S S S S S S S S S S S S S S S     4x
|---------------------------------|-------------------------------------||
|---------------------------------|------------------------------------o||
|-----------------5-5-5-5-5-5-5-5-|-4-4-4-4-4-4-4-4---------------------||
|-0-0-0-0-0-0-0-0-----------------|-----------------5-5-5-5-4-4-4-4-----||
|---------------------------------|------------------------------------o||
|---------------------------------|-------------------------------------||


    E S S S S S S S S S S S S S S   E S S S S S S S S S S S S S S
||--------------------------------|-------------------------------|
||o-------------------------------|-------------------------------|
||--------------------------------|-------------------------------|
||--------------------------------|-------------------------------|
||o-2-----------------------------|-2-----------------------------|
||--0-0-0-0-0-0-0-0-0-0-0-0-0-0-0-|-0-0-0-0-0-0-0-0-0-0-0-0-0-0-0-|


  E S S S S S S S S S S S S S S   E S S S S S S Q  Q
|-------------------------------|---------------------||
|-------------------------------|--------------------o||
|-------------------------------|---------------------||
|-5-----------------------------|-2-------------4--5--||
|-3-3-3-3-3-3-3-3-3-3-3-3-3-3-3-|-0-0-0-0-0-0-0-2--3-o||
|-------------------------------|---------------------||


    S S S S S S S S S S S S S S S S   S S S S S S S S S S S S S S S S
||----------------------------------|---------------------------------|
||o---------------------------------|---------------------------------|
||------------------5-5-5-5-5-5-5-5-|-4-4-4-4-4-4-4-4-----------------|
||--2-2-2-2-2-2-2-2-----------------|-----------------5-5-5-5-4-4-4-4-|
||o---------------------------------|---------------------------------|
||----------------------------------|---------------------------------|


  S S S S S S S S S S S S S S S S   S S S S S S S S S S S S S S S S
|---------------------------------|-------------------------------------||
|---------------------------------|------------------------------------o||
|-----------------5-5-5-5-5-5-5-5-|-4-4-4-4-4-4-4-4---------------------||
|-0-0-0-0-0-0-0-0-----------------|-----------------5-5-5-5-4-4-4-4-----||
|---------------------------------|------------------------------------o||
|---------------------------------|-------------------------------------||


    Gtr I
    S S S S S S S S S S S S S S S S   S S S S S S S S S S S S S S S S
||----------------------------------|---------------------------------|
||o---------------------------------|---------------------------------|
||--7-7-7-7-7-7-7-7-----------------|-7-7-7-7-7-7-7-7-----------------|
||------------------8-8-8-8-8-8-8-8-|-----------------7-7-7-7-7-7-7-7-|
||o---------------------------------|---------------------------------|
||----------------------------------|---------------------------------|


  S S S S S S S S S S S S S S S S    S  S  S  S  S  S  S  S S S S S  S  S S S     4x
|---------------------------------|-----------------------------------------------||
|---------------------------------|----------------------------------------------o||
|-7-7-7-7-7-7-7-7-----------------|-10-10-10-10-10-10-10-10-9-9-9-9-10-10-9-9-----||
|-----------------8-8-8-8-8-8-8-8-|-----------------------------------------------||
|---------------------------------|----------------------------------------------o||
|---------------------------------|-----------------------------------------------||


    Gtrs I, II
    S S S S S S S S S S S S S S S S   S S S S S S S S S S S S S S S S
||----------------------------------|---------------------------------|
||o---------------------------------|---------------------------------|
||------------------5-5-5-5-5-5-5-5-|-4-4-4-4-4-4-4-4-----------------|
||--2-2-2-2-2-2-2-2-----------------|-----------------5-5-5-5-4-4-4-4-|
||o---------------------------------|---------------------------------|
||----------------------------------|---------------------------------|


  S S S S S S S S S S S S S S S S   S S S S S S S S S S S S S S S S
|---------------------------------|-------------------------------------||
|---------------------------------|------------------------------------o||
|-----------------5-5-5-5-5-5-5-5-|-4-4-4-4-4-4-4-4---------------------||
|-0-0-0-0-0-0-0-0-----------------|-----------------5-5-5-5-4-4-4-4-----||
|---------------------------------|------------------------------------o||
|---------------------------------|-------------------------------------||


  Gtr I                          Gtrs I, II
  E E E E H      H    S S E Q    E E E E H      Q.   Q.   Q
|--------------|---------------|--------------|---------------|
|--------------|---------------|--------------|---------------|
|--------------|---------------|--------------|---------------|
|--------------|---------------|--------------|-----------5---|
|---------7----|-5----3-5-3-2--|---------7----|-3----5----3---|
|-0-0-0-0------|---------------|-3-3-3-3-5----|-1----3--------|


    E E E E H      H    S S E Q    E E E E H      Q.   Q.   Q   3x
||---------------|---------------|--------------|---------------||
||o--------------|---------------|--------------|--------------o||
||---------------|---------------|--------------|---------------||
||---------------|---------------|--------------|-----------5---||
||o---------7----|-5----3-5-3-2--|---------7----|-3----5----3--o||
||--0-0-0-0------|---------------|-3-3-3-3-5----|-1----3--------||


    Gtr II
    Q.   E E E Q    +E  E E E E E E E   E E E E E E E E
||----------------|-------------------|-----------------|
||o---------------|-------------------|-----------------|
||----------------|-------------------|-----------------|
||----------------|-------------------|-----------------|
||o-2----------2--|-(2)-------5-4-2-5-|-4-2-5-4-2-5-4-2-|
||--0----0-0-0-0--|-(0)-0-0-0-3-2-0-3-|-2-0-3-2-0-3-2-0-|


  Q.   E E E Q    +E  E E E Q.   E   E E Q.   Q.
|---------------|------------------|-----------------||
|---------------|------------------|----------------o||
|---------------|------------------|-----------------||
|-5----------5--|-(5)-------2------|-----4----5------||
|-3----3-3-3-3--|-(3)-3-3-3-0----0-|-0-0-2----3-----o||
|---------------|------------------|-----------------||


   3/4
    Gtrs I, II
    S S S S S S S S S S S S   S S S S S S S S S S S S
||--------------------------|-------------------------|
||o-------------------------|-------------------------|
||--------------4-4-4-4-4-4-|-------------------------|
||--2-2-2-2-2-2-------------|-5-5-5-5-5-5-4-4-4-4-4-4-|
||o-------------------------|-------------------------|
||--------------------------|-------------------------|


  S S S S S S S S S S S S   S S S S S S S S S S S S
|-------------------------|--------------------------|
|-------------------------|--------------------------|
|-------------------------|--------------------------|
|-5-5-4-4-2-2-5-5-4-4-2-2-|-5-5-4-4-2-2-5-5-4-4-2-2--|
|-------------------------|--------------------------|
|-------------------------|--------------------------|


 4/4
  Q.   E E E Q    +E  E E E Q.   E   E E Q.   Q.
|---------------|------------------|----------------||
|---------------|------------------|---------------o||
|---------------|------------------|----------------||
|-5----------5--|-(5)-------2------|-----4----5-----||
|-3----3-3-3-3--|-(3)-3-3-3-0----0-|-0-0-2----3----o||
|---------------|------------------|----------------||


  Wx2
|--------|
|--------|
|--------|
|--------|
|--------|
|--------|


 3/4
  Gtr I
  S  S S S S S  S  S  S S S S    S  S S  S  S  S S S S S S S
|-----------------------------|------------------------------|
|-----------------------------|------------------------------|
|-----------------------------|------------------------------|
|--------9-9-9-10-10-10-------|--9--9-9-10-10-10-------9-9-9-|
|-7--7-7----------------7-7-7-|------------------7-7-7-------|
|-----------------------------|------------------------------|
|
| Gtr II
| H.                            +H.
|-----------------------------|------------------------------|
|-----------------------------|------------------------------|
|-----------------------------|------------------------------|
|-----------------------------|------------------------------|
|-2---------------------------|-(2)--------------------------|
|-0---------------------------|-(0)--------------------------|


   S  S S S S S  S  S  S S S S    S  S S  S  S  S S S S S S S
|------------------------------|--------------------------------|
|------------------------------|--------------------------------|
|------------------------------|--------------------------------|
|---------9-9-9-10-10-10-------|--9--9-9-10-10-10-------9-9-9---|
|--7--7-7----------------7-7-7-|------------------7-7-7---------|
|------------------------------|--------------------------------|
|
| +H.                            +H.
|------------------------------|--------------------------------|
|------------------------------|--------------------------------|
|------------------------------|--------------------------------|
|------------------------------|--------------------------------|
|-(2)--------------------------|-(2)----------------------------|
|-(0)--------------------------|-(0)----------------------------|


  S  S S S S S  S  S  S S S S    S  S S  S  S  S S S S S S S
|-----------------------------|------------------------------|
|-----------------------------|------------------------------|
|-----------------------------|------------------------------|
|--------9-9-9-10-10-10-------|--9--9-9-10-10-10-------9-9-9-|
|-8--8-8----------------8-8-8-|------------------8-8-8-------|
|-----------------------------|------------------------------|
|
| H.                            +H.
|-----------------------------|------------------------------|
|-----------------------------|------------------------------|
|-----------------------------|------------------------------|
|-----------------------------|------------------------------|
|-3---------------------------|-(3)--------------------------|
|-1---------------------------|-(1)--------------------------|


   S   S  S  S  S  S S S S  S  S  S    S   S  S S S S  S  S  S S S S
|-----------------------------------|-----------------------------------|
|-----------------------------------|-----------------------------------|
|-----------------------------------|-----------------------------------|
|-----------10-10-10-9-9-9----------|-10--10-10-9-9-9----------9-9-9----|
|-10--10-10----------------10-10-10-|-----------------10-10-10----------|
|-----------------------------------|-----------------------------------|
|
|  H.                                 +H.
|-----------------------------------|-----------------------------------|
|-----------------------------------|-----------------------------------|
|-----------------------------------|-----------------------------------|
|-----------------------------------|-----------------------------------|
|--5--------------------------------|-(5)-------------------------------|
|--3--------------------------------|-(3)-------------------------------|


  S S S S S S  S  S  S S S S   S S S  S  S  S S S S S S S
|----------------------------|----------------------------|
|----------------------------|----------------------------|
|----------------------------|----------------------------|
|-------9-9-9-10-10-10-------|-9-9-9-10-10-10-------9-9-9-|
|-7-7-7----------------7-7-7-|----------------7-7-7-------|
|----------------------------|----------------------------|
|
| Q       H                    W
|----------------------------|----------------------------|
|----------------------------|----------------------------|
|----------------------------|----------------------------|
|----------------------------|----------------------------|
|-2--------------------------|----------------------------|
|-0--------------------------|----------------------------|


  S S S S S S  S  S  S S S S   S S S  S  S  S S S S S S S
|----------------------------|-------------------------------|
|----------------------------|-------------------------------|
|----------------------------|-------------------------------|
|-------9-9-9-10-10-10-------|-9-9-9-10-10-10-------9-9-9----|
|-7-7-7----------------7-7-7-|----------------7-7-7----------|
|----------------------------|-------------------------------|
|
| Q       H                    W
|----------------------------|-------------------------------|
|----------------------------|-------------------------------|
|----------------------------|-------------------------------|
|----------------------------|-------------------------------|
|-2--------------------------|-------------------------------|
|-0--------------------------|-------------------------------|


  S  S S S S S  S  S  S S S S    S  S S  S  S  S S S S S S S
|-----------------------------|------------------------------|
|-----------------------------|------------------------------|
|-----------------------------|------------------------------|
|--------9-9-9-10-10-10-------|--9--9-9-10-10-10-------9-9-9-|
|-8--8-8----------------8-8-8-|------------------8-8-8-------|
|-----------------------------|------------------------------|
|
| H.                            +H.
|-----------------------------|------------------------------|
|-----------------------------|------------------------------|
|-----------------------------|------------------------------|
|-----------------------------|------------------------------|
|-3---------------------------|-(3)--------------------------|
|-1---------------------------|-(1)--------------------------|


   S   S  S  S  S  S S S S  S  S  S    S   S  S S S S  S  S  S S S S
|-----------------------------------|-----------------------------------|
|-----------------------------------|-----------------------------------|
|-----------------------------------|-----------------------------------|
|-----------10-10-10-9-9-9----------|-10--10-10-9-9-9----------9-9-9----|
|-10--10-10----------------10-10-10-|-----------------10-10-10----------|
|-----------------------------------|-----------------------------------|
|
|  H.                                 +H.
|-----------------------------------|-----------------------------------|
|-----------------------------------|-----------------------------------|
|-----------------------------------|-----------------------------------|
|-----------------------------------|-----------------------------------|
|--5--------------------------------|-(5)-------------------------------|
|--3--------------------------------|-(3)-------------------------------|


   3/4
    S  S S S S S  S  S  S S S S    S  S S  S  S  S S S S S S S
||------------------------------|------------------------------|
||o-----------------------------|------------------------------|
||------------------------------|------------------------------|
||---------9-9-9-10-10-10-------|--9--9-9-10-10-10-------9-9-9-|
||o-7--7-7----------------7-7-7-|------------------7-7-7-------|
||------------------------------|------------------------------|
|
|   H.                            +H.
||------------------------------|------------------------------|
||o-----------------------------|------------------------------|
||------------------------------|------------------------------|
||------------------------------|------------------------------|
||o-2---------------------------|-(2)--------------------------|
||--0---------------------------|-(0)--------------------------|


   S  S S S S S  S  S  S S S S    S  S S  S  S  S S S S S S S
|------------------------------|-------------------------------|
|------------------------------|-------------------------------|
|------------------------------|-------------------------------|
|---------9-9-9-10-10-10-------|--9--9-9-10-10-10-------9-9-9--|
|--7--7-7----------------7-7-7-|------------------7-7-7--------|
|------------------------------|-------------------------------|
|
| +H.                            +H.
|------------------------------|-------------------------------|
|------------------------------|-------------------------------|
|------------------------------|-------------------------------|
|------------------------------|-------------------------------|
|-(2)--------------------------|-(2)---------------------------|
|-(0)--------------------------|-(0)---------------------------|


  S  S S S S S  S  S  S S S S    S  S S  S  S  S S S S S S S
|-----------------------------|------------------------------|
|-----------------------------|------------------------------|
|-----------------------------|------------------------------|
|--------9-9-9-10-10-10-------|--9--9-9-10-10-10-------9-9-9-|
|-8--8-8----------------8-8-8-|------------------8-8-8-------|
|-----------------------------|------------------------------|
|
| H.                            +H.
|-----------------------------|------------------------------|
|-----------------------------|------------------------------|
|-----------------------------|------------------------------|
|-----------------------------|------------------------------|
|-3---------------------------|-(3)--------------------------|
|-1---------------------------|-(1)--------------------------|


   S   S  S  S  S  S S S S  S  S  S    S   S  S S S S  S  S  S S S S
|-----------------------------------|------------------------------------||
|-----------------------------------|-----------------------------------o||
|-----------------------------------|------------------------------------||
|-----------10-10-10-9-9-9----------|-10--10-10-9-9-9----------9-9-9-----||
|-10--10-10----------------10-10-10-|-----------------10-10-10----------o||
|-----------------------------------|------------------------------------||
|
|  H.                                 +H.
|-----------------------------------|------------------------------------||
|-----------------------------------|-----------------------------------o||
|-----------------------------------|------------------------------------||
|-----------------------------------|------------------------------------||
|--5--------------------------------|-(5)-------------------------------o||
|--3--------------------------------|-(3)--------------------------------||


 4/4
  Q  H.
|----------|
|----------|
|----------|
|----------|
|-2--------|
|-0--------|


    Gtr I
    S S S S S S S S S S S S S S S S   S S S S S S S S S S S S S S S S
||----------------------------------|---------------------------------|
||o---------------------------------|---------------------------------|
||--7-7-7-7-7-7-7-7-----------------|-7-7-7-7-7-7-7-7-----------------|
||------------------8-8-8-8-8-8-8-8-|-----------------7-7-7-7-7-7-7-7-|
||o---------------------------------|---------------------------------|
||----------------------------------|---------------------------------|


  S S S S S S S S S S S S S S S S    S  S  S  S  S  S  S  S S S S S  S  S S S     4x
|---------------------------------|-----------------------------------------------||
|---------------------------------|----------------------------------------------o||
|-7-7-7-7-7-7-7-7-----------------|-10-10-10-10-10-10-10-10-9-9-9-9-10-10-9-9-----||
|-----------------8-8-8-8-8-8-8-8-|-----------------------------------------------||
|---------------------------------|----------------------------------------------o||
|---------------------------------|-----------------------------------------------||


    Gtrs I, II
    S S S S S S S S S S S S S S S S   S S S S S S S S S S S S S S S S
||----------------------------------|---------------------------------|
||o---------------------------------|---------------------------------|
||------------------5-5-5-5-5-5-5-5-|-4-4-4-4-4-4-4-4-----------------|
||--2-2-2-2-2-2-2-2-----------------|-----------------5-5-5-5-4-4-4-4-|
||o---------------------------------|---------------------------------|
||----------------------------------|---------------------------------|


  S S S S S S S S S S S S S S S S   S S S S S S S S S S S S S S S S     3x
|---------------------------------|-------------------------------------||
|---------------------------------|------------------------------------o||
|-----------------5-5-5-5-5-5-5-5-|-4-4-4-4-4-4-4-4---------------------||
|-0-0-0-0-0-0-0-0-----------------|-----------------5-5-5-5-4-4-4-4-----||
|---------------------------------|------------------------------------o||
|---------------------------------|-------------------------------------||


  S S S S S S S S S S S S S S S S   S S S S S S S S S S S S S S S S
|---------------------------------|---------------------------------|
|---------------------------------|---------------------------------|
|-----------------5-5-5-5-5-5-5-5-|-4-4-4-4-4-4-4-4-----------------|
|-2-2-2-2-2-2-2-2-----------------|-----------------5-5-5-5-4-4-4-4-|
|---------------------------------|---------------------------------|
|---------------------------------|---------------------------------|


  S S S S S S S S S S S S S S S S   S S S S S S S S Q    Q
|---------------------------------|---------------------------|
|---------------------------------|---------------------------|
|-----------------5-5-5-5-5-5-5-5-|-4-4-4-4-4-4-4-4-----------|
|-0-0-0-0-0-0-0-0-----------------|---------------------------|
|---------------------------------|-----------------5----4----|
|---------------------------------|-----------------3----2----|


 4/4
  Q  H.
|----------*|
|----------*|
|----------*|
|----------*|
|-2--------*|
|-0--------*|


Duration Legend
---------------
W - whole; H - half; Q - quarter; E - 8th; S - 16th; T - 32nd; X - 64th; a - acciaccatura
+ - note tied to previous; . - note dotted; .. - note double dotted
Uncapitalized letters represent notes that are staccato (1/2 duration)
Irregular groupings are notated above the duration line
Duration letters will always appear directly above the note/fret number it represents the
duration for.  Duration letters with no fret number below them represent rests.  Multi-
bar rests are notated in the form Wxn, where n is the number of bars to rest for.  Low
melody durations appear below the staff

Tablature Legend
----------------
 h   - hammer-on
 p   - pull-off
 b   - bend
 pb  - pre-bend
 r   - bend release (if no number after the r, then release immediately)
 /\  - slide into or out of (from/to "nowhere")
 s   - legato slide
 S   - shift slide
<n>  - natural harmonic
[n]  - artificial harmonic
n(n) - tapped harmonic
 ~   - vibrato
 tr  - trill
 T   - tap
 TP  - trem. picking
 PM  - palm muting
\n/  - tremolo bar dip; n = amount to dip
 \n  - tremolo bar down
 n/  - tremolo bar up
/n\  - tremolo bar inverted dip
 =   - hold bend; also acts as connecting device for hammers/pulls
 <>  - volume swell (louder/softer)
 x   - on rhythm slash represents muted slash
 o   - on rhythm slash represents single note slash

Misc Legend
-----------
 |  - bar
||  - double bar
||o - repeat start
o|| - repeat end
*|  - double bar (ending)
 :  - bar (freetime)
 $  - Segno
 &  - Coda
Tempo markers - <E/E./Q/Q./H/H.> = BPM(8/16=s8/s16), where s8 = swing 8ths, s16 = swing 16ths


***************************************************************************************
* Generated using Power Tab Editor by Brad Larsen - http://powertab.guitarnetwork.org *
***************************************************************************************
comments
We did not receive enough feedback on this tab! Please rate:
print report bad tab
1 2 3 4 5
I want to post or [tab]
guest
You may want to rate the tab now too:
select rating
Please do not post tabs as comments. Select "correction" instead!